The Drifters

Up On The Roof

The Drifters

bass

by  ABELAMIN

save to print version add songbook text version e-mail correct tuner
chordsukulelecavacokeyboardtabbassdrumsharmonicaflute Guitar Pro
close

there isn't a video lesson for this song

chords

Up On The Roof

	  		 

Intro: 
G|-------------|-------------------------------| 
D|-VOCAL START-|-6--6----6--6----6--6----6--6--| 
A|-------------|-----6-------6-------6-------6-| 
E|-------------|-------------------------------| 

verse 1:                              (Play This Bit x2) 
G|-----------------------------------------------------| 
D|-6--6----------------------------------6--6----6--6--| 
A|-----6----8--8--8-6-4--4---------6--6------6-------6-| 
E|--------------8---------4---6--6---------------------| 

Chorus: 
G|-----------------------------------------------------| 
D|-----6---------------6-----------6--6--6-5-3--3--3-1-| 
A|-4--4----4--4----4--4----4--4--------6---------3-----| 
E|-------------4---------------4-----------------------| 

G|---------------------------| 
D|---------------------------| 
A|-4--4--4-5-6-6-6-6-6-6-6-6-| 
E|-----4---------------------| 

verse 2:                                      (Play This Bit x2) 
G|-----------------------------------------------------| 
D|-6--6----------------------------------6--6----6--6--| 
A|-----6----8--8--8-6-4--4---------6--6------6-------6-| 
E|--------------8---------4---6--6---------------------| 

Chorus: 
G|-----------------------------------------------------| 
D|-----6---------------6-----------6--6--6-5-3--3--3-1-| 
A|-4--4----4--4----4--4----4--4--------6---------3-----| 
E|-------------4---------------4-----------------------| 

G|-------------------------------------------| 
D|-----------------------------6--6----6--6--| 
A|-4--4--4-5-6-6-6-6-6-6-6-6-------6-------6-| 
E|-----4-------------------------------------| 

Interlude: 
G|-----------------------------------------------------| 
D|-6--6----------------------------------6--6----6--6--| 
A|-----6----8--8--8-6-4--4---------6--6------6-------6-| 
E|--------------8---------4---6--6---------------------| 

Chorus: 
G|-----------------------------------------------------| 
D|-----6---------------6-----------6--6--6-5-3--3--3-1-| 
A|-4--4----4--4----4--4----4--4--------6---------3-----| 
E|-------------4---------------4-----------------------| 

G|---------------------------| 
D|---------------------------| 
A|-4--4--4-5-6-6-6-6-6-6-6-6-| 
E|-----4---------------------| 

verse 3:                                      (Play This Bit x2) 
G|-----------------------------------------------------| 
D|-6--6----------------------------------6--6----6--6--| 
A|-----6----8--8--8-6-4--4---------6--6------6-------6-| 
E|--------------8---------4---6--6---------------------| 

Outro:  (Repeat Outro To Fade/End) 
G|-------------------------------| 
D|-----------------6--6----6--6--| 
A|-8--8----8--8--------6-------6-| 
E|-----8-------8-----------------| 
		  

See also:

bass Deep Purple - Highway Star bass Eric Clapton - After Midnight bass The Beatles - A Day in the Life bass Coldplay - Clocks (ver. 2) bass Coldplay - The Scientist (ver. 2) bass The Beatles - Hello Goodbye
e-chords

Other versions:

bass The Drifters - Up On The Roof
auto scroll beats size up size down change color hide chords drawings
tab show chords e-chords YouTube Clip e-chords hide all tabs e-chords go to top tab

share