The Dears

Postcard From Purgatory

The Dears

bass

by  TARIKIKE

save to print version add songbook text version e-mail correct tuner
chordsukulelecavacokeyboardtabbassdrumsharmonicaflute Guitar Pro
close

there isn't a video lesson for this song

chords

Postcard From Purgatory

	  		
First Riff from (0:00 to 3:33) 
G|--------------------------------| 
D|-----7-----------5--------------| 
A|--------0-5-6-7---7--5----------| 
E|5--5----------------------------| 

Variations on First Riff (3:33 to 5:00) 
G|--------------------------------| 
D|-----7-----------5---5----------| 
A|--------0-5-6-7----7------------| 
E|5--5----------------------------| 

G|--------------------------------| 
D|-----7-----------5----5---7-5---| 
A|--------0-5-6-7----7---7-----7--| 
E|5--5---------------------------5| 

Second Riff (5:44 to 6:23) 
G|--------------------------------| 
D|--------------------------------| 
A|----------3-5/7-3---------------| 
E|5--5-5--5----------3-5----------| 

Final Riff (6:23 to 7:08) 
G|--------------------------------| 
D|7--7------------------9-5h7-----| 
A|-----3--3-5-5-6-6-7-7-----------| 
E|--------------------------------| 

Variation on Final Riff (from 7:08 to 7:32) 
G|--------------------------------| 
D|7--7----------------------------| 
A|-----3-/-12-(alternatively 7)---| 
E|--------------------------------| 


************************************ 

| /  Slide up 
| h  Hammer-on 

************************************ 
		  

auto scroll beats size up size down change color hide chords drawings
tab show chords e-chords YouTube Clip e-chords hide all tabs e-chords go to top tab

share