The Dead Milkmen

Retards At The Zoo

The Dead Milkmen

bass

by  JOAOEWERTON

save to print version add songbook text version e-mail correct tuner
chordsukulelecavacokeyboardtabbassdrumsharmonicaflute Guitar Pro
close

there isn't a video lesson for this song

chords

Retards At The Zoo

	  		
G|-----------------------------------------------------------| 
D|-----------------------------------------------------------| 
A|0-3-5-0-3-5-0-3-5-0-3-5-0-3-5-0-3-5-0-3-5-0-3-5-0-3-5-0-3-5| 
E|-----------------------------------------------------------| 

Chorus 
G|----------------| 
D|----------------| 
A|3333----3-333--0| 
E|----11-3-----11-| 


Verse 
G|-----------------------------------------------------------| 
D|-----------------------------------------------------------| 
A|0-3-5-0-3-5-0-3-5-0-3-5-0-3-5-0-3-5-0-3-5-0-3-5-0-3-5-0-3-5| 
E|-----------------------------------------------------------| 


Chorus 
G|----------------| 
D|----------------| 
A|3333----3-333--0| 
E|----11-3-----11-| 


Verse 
G|-----------------------------------------------------------| 
D|-----------------------------------------------------------| 
A|0-3-5-0-3-5-0-3-5-0-3-5-0-3-5-0-3-5-0-3-5-0-3-5-0-3-5-0-3-5| 
E|-----------------------------------------------------------| 

Chorus 
G|----------------| 
D|----------------| 
A|3333----3-333--0| 
E|----11-3-----11-| 
		  

See also:

bass Deep Purple - Burn bass Deep Purple - Child in time bass Deep Purple - Smoke On The Water bass Deep Purple - Lady Double Dealer bass Deep Purple - Fire Ball bass Deep Purple - Smoke On The Water (ver. 3)
e-chords

Other versions:

bass The Dead Milkmen - Retards At The Zoo
auto scroll beats size up size down change color hide chords drawings
tab show chords e-chords YouTube Clip e-chords hide all tabs e-chords go to top tab

share