The Crests

Silhouettes

The Crests

bass

by  JOV-CORREA

save to print version add songbook text version e-mail correct tuner
chordsukulelecavacokeyboardtabbassdrumsharmonicaflute Guitar Pro
close

there isn't a video lesson for this song

chords

Silhouettes

	  		Intro 
G|----------------|------------------| x2  
D|-8-----7-5------|---------------5-7| 
A|---------------8|-6-----5-----8----| 
E|----------------|---------8--------| 

verse 1 
G|----------------|------------------| x3  
D|-8-----7-5------|---------------5-7| 
A|---------------8|-6-----5-----8----| 
E|----------------|---------8--------| 

G|----------------|-----------------| 
D|-8-----7-5------|-----------------| 
A|---------------8|-6------8---8-8-8| 
E|----------------|-----------------| 

Pre-Chorus 
G|----------------|------------------| x3  
D|-8-----7-5------|---------------5-7| 
A|---------------8|-6-----5-----8----| 
E|----------------|---------8--------| 

G|----------------|-----------------| 
D|-8-----7-5------|-----------------| 
A|---------------8|-6------8---8-8-8| 
E|----------------|-----------------| 

Chorus 
G|----------------|---------------| x2  
D|-8-----7-5------|---------------| 
A|---------------8|-6------8---8--| 
E|----------------|---------------| 

verse 2 
G|----------------|---------------|  
D|-8-----7-5------|---------------| 
A|---------------8|-6------8---8--| 
E|----------------|---------------| 

G|----------------|------------------| x2  
D|-8-----7-5------|---------------5-7| 
A|---------------8|-6-----5-----8----| 
E|----------------|---------8--------| 

G|----------------|-----------------| 
D|-8-----7-5------|--------------5-7| 
A|---------------8|-6------8---8----| 
E|----------------|-----------------| 

G|-----------------| 
D|-----------------| 
A|-6----6-6-7---7--| 
E|-----------------| 

Pre-Chorus 
G|----------------|------------------| x3  
D|-7-----6-4------|---------------4-6| 
A|---------------7|-5-----4-----7----| 
E|----------------|---------7--------| 

G|----------------|---------------|  
D|-7-----6-4------|---------------| 
A|---------------7|-5------7---7--| 
E|----------------|---------------| 

Chorus 
G|----------------|---------------| x2  
D|-7-----6-4------|---------------| 
A|---------------7|-5------7---7--| 
E|----------------|---------------| 

Outro 
G|----------------|--------|--| 
D|----7---7-7-7---|-7---7--|-7| 
A|----------------|--------|--| 
E|----------------|--------|--| 
		  

See also:

bass Simon & Garfunkel - The sounds of silence bass Live - Dolphin“s Cry bass Guns N' Roses - Sweet Child O' Mine bass Guns N' Roses - Civil War bass 4 Non Blondes - What`s up (ver. 1) bass Guns N' Roses - Sweet Child O' Mine (ver. 3)
e-chords

Other versions:

bass The Crests - Silhouettes
auto scroll beats size up size down change color hide chords drawings
tab show chords e-chords YouTube Clip e-chords hide all tabs e-chords go to top tab

share