The Creepshow

You'll Come Crawling

The Creepshow

bass

by  LUCICAMARGO

save to print version add songbook text version e-mail correct tuner
chordsukulelecavacokeyboardtabbassdrumsharmonicaflute Guitar Pro
close

there isn't a video lesson for this song

chords

You'll Come Crawling

	  		

Intra/Versa P1 
                                         
G|--------|-----------|-----------x2|-----------------|------------| 
D|--------|--x9----x9-|-----------x2|-----------------|------------| 
A|7~------|7----77----|7---9----9-x2|7-5-7-9-10-9-7-5-|----9-----9-| 
E|-----7~-|-----------|-7x---77x--X2|-----------------|77x---77x---| 


(You got greedy...) 
G|-----------------|---------------|---------------------------------| 
D|-----------------|---------------|---------------------------------| 
A|-7-10-7---7-10-7-|---------------|-7-10-7---7-10-7-----9-----9-----| 
E|8-------8--------|7-7-7-7--5-3-2-|8-------8---------77-----77------| 

(A little...) 
G|------------------------X2|------------------------------|------------------------------| 
D|--x9----x9--------------X2|------------------------------|------------------------------| 
A|7----77-----7---9-----9-X2|7-5-7-9-10-9-7-5------9-----9-|7-5-7-9-10-9-7-5-----9--------| 
E|-------------7x---77x---X2|-------------------7----77----|-------------------7----x7532-| 

(You got greedy...) 
G|-----------------|---------------|---------------------------------| 
D|-----------------|---------------|---------------------------------| 
A|-7-10-7---7-10-7-|---------------|-7-10-7---7-10-7-----------------| 
E|8-------8--------|7-7-7-7--5-3-2-|8-------8---------10-10-10-10-875| 

(Ain't Gonna....)          (End with this riff) 
G|------------------------|------------------------------------------| 
D|5---5-------------------|------------------------------------------| 
A|-5----975--7----7-----7-|-7-10-7----7-10-7-------------------------| 
E|-------------7----710---|8--------8--------7-7-7-7-7-5-3-2---------| 

(This should'nt...) 
G|------------------------X2|------------------------------|------------------------------| 
D|--x9----x9--------------X2|------------------------------|------------------------------| 
A|7----77-----7---9-----9-X2|7-5-7-9-10-9-7-5------9-----9-|7-5-7-9-10-9-7-5-----9--------| 
E|-------------7x---77x---X2|-------------------7----77----|-------------------7----7~----| 

(You got greedy...) 
G|-----------------|---------------|---------------------------------| 
D|-----------------|---------------|---------------------------------| 
A|-7-10-7---7-10-7-|---------------|-7-10-7---7-10-7-----------------| 
E|8-------8--------|7-7-7-7--5-3-2-|8-------8---------10-10-10-10-875| 


(Ain't Gonna....)          (So I can have you back and...) 
G|------------------------X3|------------------------------------------| 
D|5---5-------------------X3|------------------------------------------| 
A|-5----975--7----7-----7-X3|-7-10-7----7-10-7-------------------------| 
E|-------------7----710---X3|8--------8--------7-7-7-7-7-5-3-2---------| 

(Just so...)    (You'll Come Crawlin'...) 
G|-------|------------------------------------| 
D|-------|------------------------------------| 
A|-------|------------------------------------| 
E|8~~~~~-|-88888888-77777777-88888888--10--10-| 

(Ain't Gonna....)          (So I can have you back and...) 
G|------------------------X5|------------------------------------------| 
D|5---5-------------------X5|------------------------------------------| 
A|-5----975--7----7-----7-X5|-7-10-7----7-10-7-------------------------| 
E|-------------7----710---X5|8--------8--------7-7-7-7-7-5-3-2---------| 


G|----------------------| 
D|----------------------| 
A|----------------------| 
E|8-----------------0~--| 

 
		  

Full key step upFull key step up
Half key step upHalf key step up
Half key step downHalf key step down
Full key step downFull key step down
hide glossary

See also:

bass Gob - Sleepyhead (ver. 2) bass Gob - Ming Tran bass Gob - 236 E. Broadway bass Gob - Sleepyhead bass The Creepshow - You'll Come Crawling bass Gob - Centipede
e-chords

Other versions:

bass The Creepshow - You'll Come Crawling
auto scroll beats size up size down change color hide chords drawings
tab show chords e-chords YouTube Clip e-chords hide all tabs e-chords go to top tab

share