The Chiffons

Hes So Fine

The Chiffons

bass

by  ANDRSOUZA

save to print version add songbook text version e-mail correct tuner
chordsukulelecavacokeyboardtabbassdrumsharmonicaflute Guitar Pro
close

there isn't a video lesson for this song

chords

Hes So Fine

	  		
G|------------------------| 
D|------------------------| 
A|------------------------| 
E|5---------------5-------| 

G|----------------------------------------------------------------| 
D|----------------------------------------------------------------| 
A|5-----------------------5---------------------------------------| 
E|--------------------------------5-----------------------5-------| 

G|--------------------------------| 
D|--------------------------------| 
A|5-------------------------------| 
E|--------------------------------| 

0:06 

G|----------------------------------------------------------------| 
D|----------------------------------------------------------------| x4 
A|--------------------------------5-----------5-----------5-------| 
E|5-----------5-----------5---------------------------------------| 

0:19 

G|----------------------------------------------------------------| 
D|----------------------------------------------------------------| x3 
A|------------------------5-------------------------------5-------| 
E|3-----------3-------------------3-----------3-------------------| 

G|----------------------------------------------------------------| 
D|----------------------------------------------------------------| 
A|------------------------5---------------------------------------| 
E|3-----------3-------------------3-------------------------------| 

0:33 

G|----------------------------------------------------------------| 
D|----------------------------------------------------------------| x4 
A|--------------------------------5-----------5-----------5-------| 
E|5-----------5-----------5---------------------------------------| 

0:46 

G|----------------------------------------------------------------| 
D|----------------------------------------------------------------| x3 
A|------------------------5-------------------------------5-------| 
E|3-----------3-------------------3-----------3-------------------| 

G|----------------------------------------------------------------| 
D|----------------------------------------------------------------| 
A|------------------------5---------------------------------------| 
E|3-----------3-------------------3-------------------------------| 

0:59 

G|----------------------------------------------------------------| 
D|--------2-------5-------2---------------2-------5-------2-------| x2 
A|3-------------------------------3-------------------------------| 
E|----------------------------------------------------------------| 

G|----------------------------------------------------------------| 
D|----------------------------------------------------------------| x2 
A|--------2-------5-------2---------------2-------5-------2-------| 
E|3-------------------------------3-------------------------------| 

1:12 

G|----------------------------------------------------------------| 
D|--------2-------5-------2---------------2-------5-------2-------| 
A|3-------------------------------3-------------------------------| 
E|----------------------------------------------------------------| 

G|----------------------------------------------------------------| 
D|--------2-------5-------2---------------2-------5---------------| 
A|3-------------------------------3-----------------------7-\-----| 
E|----------------------------------------------------------------| 

G|----------------------------------------------------------------| 
D|----------------------------------------------------------------| 
A|5-------------------------------5-------------------------------| 
E|------------------------5-------------------------------5-------| 

G|----------------------------------------------------------------| 
D|----------------------------------------------------------------| 
A|5---------------5---------------5-------------------------------| 
E|----------------------------------------------------------------| 

1:25 

G|----------------------------------------------------------------| 
D|----------------------------------------------------------------| x3 
A|--------------------------------5-----------5-----------5-------| 
E|5-----------5-----------5---------------------------------------| 

G|----------------------------------------------------------------| 
D|--------------------------------------------------------2---2---| 
A|--------------------------------5-----------5-------5-----------| 
E|5-----------5-----------5---------------------------------------| 

1:39 Until fadeout. 

G|----------------------------------------------------------------| 
D|5-----------5-----------5---4---2-----------2-----------2---4---| 
A|----------------------------------------------------------------| 
E|----------------------------------------------------------------| 
		  

See also:

bass Soundtracks - James Bond - Theme bass Soundtracks - Seinfeld Theme bass Soundtracks - Addams Family - Theme bass Bouncing Souls - Serenity bass Soundtracks - Endless Summer 2 - Theme bass Soundtracks - Circus Theme
e-chords

Other versions:

bass The Chiffons - Hes So Fine
auto scroll beats size up size down change color hide chords drawings
tab show chords e-chords YouTube Clip e-chords hide all tabs e-chords go to top tab

share