The Boo Radleys

Wake Up Boo

The Boo Radleys

bass

by  JOAOEWERTON

save to print version add songbook text version e-mail correct tuner
chordsukulelecavacokeyboardtabbassdrumsharmonicaflute Guitar Pro
close

there isn't a video lesson for this song

chords

Wake Up Boo

	  		
Intro 

G|-----------------------------|-----------------------------|-----------------------------| 
D|-----------------------------|-----------------------------|-----------------------------| 
A|-0--2-2-2-2p0----------------|-0--2-2-2-2p0----------------|-0--2-2-2-2p0----------------| 
E|-------------4-4--2-4--2-4-2-|-------------4-4--2-4--2-4-2-|-------------4-4--2-4--2-4-2-| 

G|-----------------------------| 
D|----------------------6-6--8-| 
A|-0--2-2-2-2--4-4-4-4-4-------| 
E|-----------------------------| 


Verse 

G|----------------------------------|----------------------------------------| 
D|-------------------3-3--3-4-3-3-1-|----------------------------------------| 
A|-4----4--2----2--1-----4----------|-4----4--2----2--1----1--6-6-6-6-6-6-6-6| 
E|---4-4-4---4-4-4------------------|---4-4-4---4-4-4---2-2-2----------------| 

Pre Chorus 

G|---------------------------|-----------------------------|-----------------------------| 
D|---------------------------|-----------------------------|-----------------------------| 
A|-0--2-2-2-2p0--------------|-0-0--2-2-2-2p0--------------|-0-0--2-2-2-2p0--------------| 
E|-------------4-4--4--2-4-2-|---------------4-4--4--2-4-2-|---------------4-4--4--2-4-2-| 

G|--------------------------------| 
D|--------------------------------| 
A|-0-0--0-2-2--2-2--4-4-4-4-4-4-4-| 
E|--------------------------------| 


Chorus 

G|---------------------------|-----------------------------|---------------------------| 
D|---------------------------|-----------------------------|---------------------------| 
A|-0--2-2-2-2p0--------------|-0-0--2-2-2-2p0--------------|-0--2-2-2-2p0--------------| 
E|-------------4-4-2-4-2-4-2-|---------------4-4-2-4-2-4-2-|-------------4-4-2-4-2-4-2-| 

G|------------------------------| 
D|------------------------------| 
A|-0--2-2-2-2-4-4-4-4-4-4-4-4-4-| 
E|------------------------------| 


Verse 

G|----------------------------------|----------------------------------------| 
D|-------------------3-3--3-4-3-3-1-|----------------------------------------| 
A|-4----4--2----2--1-----4----------|-4----4--2----2--1----1--6-6-6-6-6-6-6-6| 
E|---4-4-4---4-4-4------------------|---4-4-4---4-4-4---2-2-2----------------| 


Pre Chorus 

G|---------------------------|-----------------------------|-----------------------------| 
D|---------------------------|-----------------------------|-----------------------------| 
A|-0--2-2-2-2p0--------------|-0-0--2-2-2-2p0--------------|-0-0--2-2-2-2p0--------------| 
E|-------------4-4--4--2-4-2-|---------------4-4--4--2-4-2-|---------------4-4--4--2-4-2-| 

G|--------------------------------| 
D|--------------------------------| 
A|-0-0--0-2-2--2-2--4-4-4-4-4-4-4-| 
E|--------------------------------| 


Chorus 

G|---------------------------|-----------------------------|---------------------------| 
D|---------------------------|-----------------------------|---------------------------| 
A|-0--2-2-2-2p0--------------|-0-0--2-2-2-2p0--------------|-0--2-2-2-2p0--------------| 
E|-------------4-4-2-4-2-4-2-|---------------4-4-2-4-2-4-2-|-------------4-4-2-4-2-4-2-| 

G|------------------------------| 
D|------------------------------| 
A|-0--2-2-2-2-4-4-4-4-4-4-4-4-4-| 
E|------------------------------| 


Bridge 

G|-------------------|     |----------------------------------| 
D|-4h6-6-6-6-6-6-6-6-| x10 |-4h6-6-6-6-6-4-----4h6-4---4h6----| 
A|-------------------|     |---------------6-4------6-4---6-4-| 
E|-------------------|     |----------------------------------| 

G|-6~---16-15---8-6--------|-6~---16-15---8-6--------| 
D|-4~---16-16----8-8-6/4-4-|------16-16----8-8-6/4-4-| 
A|-------------------------|-------------------------| 
E|-------------------------|-------------------------| 

G|--------------------|---------/13-15~------| 
D|------------6--8--9-|----9-11--------------| 
A|------------6--8--9-|-/11-------------13\--| 
E|-7-6----7-6---------|----------------------| 

Outro 

G|-----------------------------|----------------------------| 
D|-----------------------------|----------------------------| 
A|-2~--4-4-4p0-----------------|-2~--4-4-4p0----------------| 
E|------------6-6--4-6--4-6-4--|------------6-6--4-6--4-6-4-| 

G|----------------------------|-------------------| 
D|----------------------------|----------------11-| 
A|-2~--4-4-4p0----------------|------------8-11---| 
E|------------6-6--4-6--4-6-4-|-5--5-7--7-9-------| 



************************************ 

| h   Hammer-on 
| p   Pull-off 
| /   Slide up 
| \   Slide down 

************************************ 
		  

See also:

bass Deep Purple - Smoke On The Waterr bass Deep Purple - Knocking At Your Back Door bass Deep Purple - Burn (ver. 2) bass Deep Purple - Black Night bass Deep Purple - Strange kind of woman bass Deep Purple - Fire Ball
e-chords

Other versions:

bass The Boo Radleys - Wake Up Boo
auto scroll beats size up size down change color hide chords drawings
tab show chords e-chords YouTube Clip e-chords hide all tabs e-chords go to top tab

share