The Birthday Massacre

Shallow Grave

The Birthday Massacre

bass

by  ADALGOMES

save to print version add songbook text version e-mail correct tuner
chordsukulelecavacokeyboardtabbassdrumsharmonicaflute Guitar Pro
close

there isn't a video lesson for this song

chords

Shallow Grave

	  		
Intro bass begins at 0:18 
G|------------------------------------------------------| 
D|------------------------------------------------------| 
A|2-2---2--2--2~-0-0---0--0--0--------------------------| 
D|-----------------------------2-2---2--2--2-0-0--0-4-4-| 

G|------------------------------------------------------| 
D|------------------------------------------------------| 
A|2-2---2--2--2~---------------0-0---0--0--0------------| 
D|---------------4-4---4--4--4---------------5-5--5-0-0-| 

Verse 0:35 "Her voice cuts through the walls, rings through everything that's hollow..." 
G|------------------------------------------| 
D|------------------------------------------| 
A|2-22-2-2---0-00-0-0-----------------------| 
D|----------------------2-22-2-2---2-22-2-2-| 

G|------------------------------------------------| 
D|------------------------------------------------| 
A|2-22-2-2----------------------------------------| 
D|-----------0-00-0-0---2-22-2-2---2-22-2-2-0-0-0-| 

Pre-Chorus 0:52 "She was always good for nothing when the good broke bad..." 
G|----------------------------------------------------------------| 
D|----------------------------------------------------------------| 
A|2-2-2-2-2-2-2-2-0-0-0-0-0-0-0-0---------------------------------| 
D|--------------------------------2-2-2-2-2-2-2-2-2-2-2-2-2-2-2-2-| 

G|------------------------------------------------| 
D|------------------------------------------------| 
A|2-2-2-2-2-2-2-2---------------------------------| 
D|----------------0-0-0-0-0-0-0-0-2-2-2-2-2-2-2-2-| 

Chorus 1:09 "We put her down in a shallow grave, she wears a dress like a body bag everyday..." 
G|------------------------------------------------------| 
D|------------------------------------------------------| 
A|2-2---2--2--2~-0-0---0--0--0--------------------------| 
D|-----------------------------2-2---2--2--2-0-0--0-4-4-| 

G|------------------------------------------------------| 
D|------------------------------------------------------| 
A|2-2---2--2--2~---------------0-0---0--0--0------------| 
D|---------------4-4---4--4--4---------------5-5--5-0-0-| 

verse 1:25 "Her blood runs hot to cold, always breaking all she borrows..." 
G|------------------------------------------| 
D|------------------------------------------| 
A|2-22-2-2---0-00-0-0-----------------------| 
D|----------------------2-22-2-2---2-22-2-2-| 

G|------------------------------------------------| 
D|------------------------------------------------| 
A|2-22-2-2----------------------------------------| 
D|-----------0-00-0-0---2-22-2-2---2-22-2-2-0-0-0-| 

Pre-Chorus 1:42 "Just another reason looking for the next 'because'..." 
G|----------------------------------------------------------------| 
D|----------------------------------------------------------------| 
A|2-2-2-2-2-2-2-2-0-0-0-0-0-0-0-0---------------------------------| 
D|--------------------------------2-2-2-2-2-2-2-2-2-2-2-2-2-2-2-2-| 

G|------------------------------------------------| 
D|------------------------------------------------| 
A|2-2-2-2-2-2-2-2---------------------------------| 
D|----------------0-0-0-0-0-0-0-0-2-2-2-2-2-2-2-2-| 

Chorus 1:59 "We put her down in a shallow grave, she wears a dress like a body bag everyday..." 
G|------------------------------------------------------| 
D|------------------------------------------------------| 
A|2-2---2--2--2~-0-0---0--0--0--------------------------| 
D|-----------------------------2-2---2--2--2-0-0--0-4-4-| 

G|------------------------------------------------------| 
D|------------------------------------------------------| 
A|2-2---2--2--2~---------------0-0---0--0--0------------| 
D|---------------4-4---4--4--4---------------5-5--5-0-0-| 

Bridge 2:16 "Tomorrow's not a new day, more time to think things through..." 
G|------------------------------------------------------------------------| 
D|------------------------------------------------------------------------| 
A|------2~----------------------2~----------0~----------2~----------------| 
D|2~----------4~----0~----2~----------5~----------2~----------4~----0~----| 

G|----------------------------------------------------------| 
D|----------------------------------------------------------| 
A|------------------------------------------------0-0-0-0-0-| 
D|2-2-2-2-2-2-2-2-4-4-4-4-4-4-4-4-5-5-5-5-5-5-5-5-----------| 

Pre-Chorus 
G|------------------------------------------------------| 
D|------------------------------------------------------| 
A|2-2---2--2--2~-0-0---0--0--0--------------------------| 
D|-----------------------------2-2---2--2--2-0-0--0-4-4-| 

G|-----------------------------------------------------| 
D|-----------------------------------------------------| 
A|2-2---2--2--2---------------0-0---0--0--0------------| 
D|--------------4-4---4--4--4---------------5-5--5-0-0-| 

Chorus 2:50 "We put her down in a shallow grave, she wears a dress like a body bag everyday..." 
G|------------------------------------------------------| 
D|------------------------------------------------------| 
A|2-2---2--2--2~-0-0---0--0--0--------------------------| 
D|-----------------------------2-2---2--2--2-0-0--0-4-4-| 

G|------------------------------------------------------| 
D|------------------------------------------------------| 
A|2-2---2--2--2~---------------0-0---0--0--0------------| 
D|---------------4-4---4--4--4---------------5-5--5-0-0-| 

Outro 3:06 
G|------------------------------------------------------| 
D|------------------------------------------------------| 
A|2-2---2--2--2~-0-0---0--0--0--------------------------| 
D|-----------------------------2-2---2--2--2-0-0--0-4-4-| 

G|------------------------------------------------------| 
D|------------------------------------------------------| 
A|2-2---2--2--2~---------------0-0---0--0--0------------| 
D|---------------4-4---4--4--4---------------5-5--5-0-0-| 


************************************ 
| ~  Vibrato 
************************************ 
		  

See also:

bass Sum 41 - Pieces (VER.2) bass Barenaked Ladies - One Week bass Sum 41 - What I Believe bass The Birthday Massacre - Pale bass Sum 41 - A.N.I.C bass Sum 41 - The Hell Song
e-chords

Other versions:

bass The Birthday Massacre - Shallow Grave
auto scroll beats size up size down change color hide chords drawings
tab show chords e-chords YouTube Clip e-chords hide all tabs e-chords go to top tab

share with facebook