The Beatles

home > The Beatles

You Really Got A Hold On Me Bass Tab

The Beatles

Difficulty: nolevelnolevel

tuner correct add songbook print version text version save to e-mail
chordsukulelecavacokeyboardtabbassdrumsharmonicsflute Guitar Pro
chords

You Really Got A Hold On Me

  		

The  - 

I think this is right...

Intro:
1------------|------------|------------|------------|
2--------7-6-|-4----4-----|--------76--|-4----------|
3--4-7-------|---44---7---|--4-7-------|---44--7h9-7|
4-5----------|------------|-5----------|------------|

Verse:
1||------------|------------|------------|------------|
2||.------4-6--|--7-----76--|-4-------2--|-4-----4----|
3||.--4-7------|----47------|----4--4----|----4----7--|
4||-5----------|------------|------------|------------|

1--------------|------------|------------|------------|
2--------------|------4-7---|---4-2--246-|7-7-----46--|
3-----4-7----4-|-5-5-----5-4|-2----------|---4-7-7----|
4---5-----5-7--|------------|------------|------------|

1--------------|------------|-------------||
2---7-7---7-7-6|-4-4------2-|--4--4------.||
3-------4------|-----4-4----|-------4----.||
4--------------|------------|-------------||

1--------------|------------|------------|------------|------------|
2------7-----7-|----4--7--4-|------------|------------|------------|
3--------4-7--4|-5----------|------------|------------|------------|
4----5---------|------------|----5---5---|----5----0--|--0---------|
                                                  \tie/1

1||------------|------------||
2||.-------4---|--4--------.||
3||.---4-7--7-4|-----7-----.||
4||--5---------|--------5---||



h=hammer on
||                ||
||. repeat signs .||
||.              .||
||                ||

	  

Search Paypal
auto scroll beats size up size down change color hide chords drawings
tab show chords e-chords YouTube Clip e-chords hide all tabs e-chords go to top tab