The Beatles

home > The Beatles

P.S I Love You Bass Tab

The Beatles

Difficulty: nolevelnolevel

by Adolfogomes

tuner correct add songbook print version text version save to e-mail
chordsukulelecavacokeyboardtabbassdrumsharmonicsflute Guitar Pro
chords

P.S I Love You

  		P.S. I Love You 
The Beatles 

Intro: 
G|------- ------- ------- -------|------- ------- ------- -------| 
D|5------------------------------|----------------7--------------| 
A|----------------4-----------4--|5-----------5-----------5------| 
E|-------------------------------|-------------------------------| 
  As      I       write      this letter, 


G|------- ------- ------- -------|------- ------- ------- -------| 
D|5-----------5------------------|----------------7--------------| 
A|----------------4-----------4--|5-----------5-----------5------| 
E|-------------------------------|-------------------------------| 
  send    my      love        to  you,                        Re- 


G|------- ------- ------- -------|------- ------- ------- -------| 
D|5-----------5------------------|----------------7--------------| 
A|----------------4-----------4--|5-----------5------------------| 
E|-------------------------------|------------------------5------| 
  mem  -  ber     that       I'll always 


G|------- ------- ------- -------|------- ------- ------- -------| 
D|----------------7-----------7--|----------------7--------------| 
A|5-----------5------------------|5-----------5------------------| 
E|-------------------------------|------------------------5------| 
  be      in      love    with    you 

Verse: 
G|------- ------- ------- -------|------- ------- ------- -------| 
D|----------------7--------------|----------------9--------------| 
A|5-----------5-----------5------|7-----------7-----------7------| 
E|-------------------------------|-------------------------------| 
  Trea -  sure    these   few     words       till    we're   to- 


G|------- ------- ------- -------|------- ------- ------- -------| 
D|----------------7--------------|7-----------7-----------7------| 
A|5-----------5-----------5------|----------------7--------------| 
E|-------------------------------|-------------------------------| 
  ge  -   ther,              keep all     my          love    for- 


G|------- ------- ------- -------|------- ------- ------- -------| 
D|9-----------9-----------9------|7-----------7-----------7------| 
A|----------------9--------------|----------------7--------------| 
E|-------------------------------|-------------------------------| 
  e   -   ver,                    P.      S.           I     love 


G|------- ------- ------- -------|------- ------- ------- -------| 
D|8-----------8------------------|8-----------8------------------| 
A|----------------8-------8------|-------------------------------| 
E|-------------------------------|----------------6-------8------| 
  you,                                            you,    you, 


G|------- ------- ------- -------|------- ------- ------- -------| 
D|----------------7--------------|----------------7--------------| 
A|5-----------5---------------4--|5-----------5------------------| 
E|------------------------5------|------------------------5------| 
  you 

Verse: 
G|------- ------- ------- -------|------- ------- ------- -------| 
D|----------------7--------------|----------------9--------------| 
A|5-----------5-----------5------|7-----------7-----------7------| 
E|-------------------------------|-------------------------------| 
  I'll    be      co  -   ming    home        a - gain        to 


G|------- ------- ------- -------|------- ------- ------- -------| 
D|----------------7--------------|7-----------7-----------7------| 
A|5-----------5-----------5------|----------------7--------------| 
E|-------------------------------|-------------------------------| 
  you,    love,               and till        the day     I 


G|------- ------- ------- -------|------- ------- ------- -------| 
D|9-----------9-----------9------|7-----------7-----------7------| 
A|----------------9--------------|----------------7--------------| 
E|-------------------------------|-------------------------------| 
  do,     love,                   P.      S.           I     love 


G|------- ------- ------- -------|------- ------- ------- -------| 
D|8-----------8------------------|8-----------8------------------| 
A|----------------8-------8------|-------------------------------| 
E|-------------------------------|----------------6-------8------| 
  you,                                            you,    you, 


G|------- ------- ------- -------|------- ------- ------- -------| 
D|----------------7--------------|----------------7--------------| 
A|5-----------5---------------4--|5-----------5-----------5------| 
E|------------------------5------|-------------------------------| 
  you 

Bridge: 
G|------- ------- ------- -------|------- ------- ------- -------| 
D|5-----------5-----------5------|----------------7--------------| 
A|----------------5--------------|5-----------5-----------5------| 
E|-------------------------------|-------------------------------| 
  As      I       write      this letter, 


G|------- ------- ------- -------|------- ------- ------- -------| 
D|5-----------5-----------5------|----------------7--------------| 
A|----------------5--------------|5-----------5-----------5------| 
E|-------------------------------|-------------------------------| 
  send    my      love        to  you,                        Re- 


G|------- ------- ------- -------|------- ------- ------- -------| 
D|5-----------5-----------5------|----------------7--------------| 
A|----------------5--------------|5-----------5------------------| 
E|-------------------------------|------------------------5------| 
  mem  -  ber     that       I'll always 


G|------- ------- ------- -------|------- ------- ------- -------| 
D|----------------7-----------7--|----------------7--------------| 
A|5-----------5------------------|5-----------5------------------| 
E|-------------------------------|------------------------5------| 
  be      in      love    with    you 

Verse: 
G|------- ------- ------- -------|------- ------- ------- -------| 
D|----------------7--------------|----------------9--------------| 
A|5-----------5-----------5------|7-----------7-----------7------| 
E|-------------------------------|-------------------------------| 
  Trea -  sure    these   few     words       till    we're   to- 


G|------- ------- ------- -------|------- ------- ------- -------| 
D|----------------7--------------|7-----------7-----------7------| 
A|5-----------5-----------5------|----------------7--------------| 
E|-------------------------------|-------------------------------| 
  ge  -   ther,              keep all     my          love    for- 


G|------- ------- ------- -------|------- ------- ------- -------| 
D|9-----------9-----------9------|7-----------7-----------7------| 
A|----------------9--------------|----------------7--------------| 
E|-------------------------------|-------------------------------| 
  e   -   ver,                    P.      S.           I     love 


G|------- ------- ------- -------|------- ------- ------- -------| 
D|8-----------8------------------|8-----------8------------------| 
A|----------------8-------8------|-------------------------------| 
E|-------------------------------|----------------6-------8------| 
  you,                                            you,    you, 


G|------- ------- ------- -------|------- ------- ------- -------| 
D|----------------7--------------|----------------7--------------| 
A|5-----------5---------------4--|5-----------5-----------5------| 
E|------------------------5------|-------------------------------| 
  you 

Bridge: 
G|------- ------- ------- -------|------- ------- ------- -------| 
D|5-----------5-----------5------|----------------7--------------| 
A|----------------5--------------|5-----------5-----------5------| 
E|-------------------------------|-------------------------------| 
  As      I       write      this letter,     oh! 


G|------- ------- ------- -------|------- ------- ------- -------| 
D|5-----------5-----------5------|------------7---7--------------| 
A|----------------5--------------|5-----------------------5------| 
E|-------------------------------|-------------------------------| 
  send    my      love        to  you, You know I want you to re- 


G|------- ------- ------- -------|------- ------- ------- -------| 
D|5-----------5-----------5------|----------------7--------------| 
A|----------------5--------------|5-----------5---------------4--| 
E|-------------------------------|------------------------5------| 
  mem  -  ber     that       I'll always      yeah! 


G|------- ------- ------- -------|------- ------- ------- -------| 
D|----------------7-----------7--|----------------7--------------| 
A|5-----------5------------------|5-----------5------------------| 
E|-------------------------------|------------------------5------| 
  be      in      love    with    you 

Verse: 
G|------- ------- ------- -------|------- ------- ------- -------| 
D|----------------7--------------|----------------9--------------| 
A|5-----------5-----------5------|7-----------7-----------7------| 
E|-------------------------------|-------------------------------| 
  I'll    be      co  -   ming    home        a - gain        to 


G|------- ------- ------- -------|------- ------- ------- -------| 
D|----------------7--------------|7-----------7-----------7------| 
A|5-----------5-----------5------|----------------7--------------| 
E|-------------------------------|-------------------------------| 
  you,    love,               and till        the day     I 


G|------- ------- ------- -------|------- ------- ------- -------| 
D|9-----------9-----------9------|7-----------7-----------7------| 
A|----------------9--------------|----------------7--------------| 
E|-------------------------------|-------------------------------| 
  do,     love,                   P.      S.           I     love 


G|------- ------- ------- -------|------- ------- ------- -------| 
D|8-----------8------------------|8-----------8------------------| 
A|----------------8-------8------|-------------------------------| 
E|-------------------------------|----------------6-------8------| 
  you,                                            you,    you, 


G|------- ------- ------- -------|------- ------- ------- -------| 
D|----------------7--------------|-------------------------------| 
A|5-----------5---------------4--|5-------5----------------------| 
E|------------------------5------|----------------6-------8------| 
  you                                             you,    you, 

Outro: 
G|------- ------- ------- -------|------- ------- ------- -------| 
D|----------------7--------------|-------------------------------| 
A|5-----------5---------------4--|5-------5----------------------| 
E|------------------------5------|----------------6-------8------| 
  you                                             I       love 


G|------- ------- ------- -------|------- ------- ------- -------| 
D|------------7-----------7------|-------------------------------| 
A|5------------------------------|5------------------------------| 
E|-------------------------------|-------------------------------| 
  you! 

Escrita por: John Lennon e Paul McCartney 
	  

Search Paypal
auto scroll beats size up size down change color hide chords drawings
tab show chords e-chords YouTube Clip e-chords hide all tabs e-chords go to top tab