The Beatles

home > The Beatles

It's been a hard day's night Bass Tab

The Beatles

Difficulty: EasyEasy

by RastamanSoul

tuner correct add songbook print version text version save to e-mail
chordsukulelecavacokeyboardtabbassdrumsharmonicsflute Guitar Pro
chords

It's been a hard day's night

  		It's been a hard day's night... 
 
G|-------------------------------------------------------------------| 
D|---------------------------------3-3-3-3-3-3-3-3-------------------| 
A|---------3-3-3-----------------------------------------------------| 
E|-3-3-3-3-------3-3-3-3-3-3-3-3-3-----------------3-3-3-3-3-3-3-3---| 
 
Variant: 
 
G|-------------------------------------------------------------------| 
D|---------------------------------3-3-3-3-3-3-3-3-------------------| 
A|---------3-3-3--------------------------------------------5--5--5--|<-Triplet 5-5-5 
E|-3-3-3-3-------3-3-3-3-3-3-3-3-3-----------------3-3-3-3-----------| 
 
But when I get home to you... 
 
G|----------------------------------------------------------| 
D|----------------------------------------------------------| 
A|-3--3--3---3-3-5--5--5---5-5-------3-3-3------------------| 
E|-----------------------------3--3--------3---3--3--3------| 
 
When I\'m home... 
 
G|-------------------------------------------------------| 
D|-------------------------------------------------------| 
A|-2--2--2--2--------------2--2--2--2--2--2--2--2--------| 
E|-------------0--0--0--0--------------------------------| 
 
G|-------------------------------------------------------| 
D|-------------------------------------------------------| 
A|-------------------------3--3--3--3-3-5--5--5--5-------| 
E|-3--3--3--3--0--0--0--0--------------------------------| 

	  

Search Paypal
auto scroll beats size up size down change color hide chords drawings
tab show chords e-chords YouTube Clip e-chords hide all tabs e-chords go to top tab