The B-52's

Good Stuff

The B-52's

bass

by  CARLLUZ

save to print version add songbook text version e-mail correct tuner
chordsukulelecavacokeyboardtabbassdrumsharmonicaflute Guitar Pro
close

there isn't a video lesson for this song

chords

Good Stuff

	  		
The B-52s  Good stuff 

Verse(listen to the song to found how many times to play these 8 bars) 
G|----------------|----------------|----------------|----------------| 
D|--4-44----------|--4-44-------2--|--4-44----------|---------2---2--| 
A|-------0-2-3-2-0|-------0-2-3---3|-------0-2-3-2-0|-0-2-444---4---4| 
E|----------------|----------------|----------------|----------------| 

G|----------------|----------------|----------------|----------------| 
D|--4-44----------|--4-44-------2--|--4-44----------|----------66-4-2| 
A|-------0-2-3-2-0|-------0-2-3---3|-------0-2-3-2-0|-0-2-444--------| 
E|----------------|----------------|----------------|----------------| 

Chorus 
G|----------------|----------------| 
D|----------------|----------1-0-1-| 
A|----------4--4-4|--2--2-2--------| 
E|--4--4-4--------|----------------| 4x 
		  

See also:

bass Deep Purple - Smoke On The Waterr bass Deep Purple - Knocking At Your Back Door bass Deep Purple - Burn (ver. 2) bass Deep Purple - Black Night bass Deep Purple - Strange kind of woman bass Deep Purple - Fire Ball
e-chords

Other versions:

bass The B-52's - Good Stuff
auto scroll beats size up size down change color hide chords drawings
tab show chords e-chords YouTube Clip e-chords hide all tabs e-chords go to top tab

share