The Association

The Bus Song

The Association

bass

by  LINEKERS

save to print version add songbook text version e-mail correct tuner
chordsukulelecavacokeyboardtabbassdrumsharmonicaflute Guitar Pro
close

there isn't a video lesson for this song

chords

The Bus Song

	  		
Tuning: EADG 

G|------------------------------------------------------------------------------------------------| 
D|------------------------------------------5-----------------------------------------------5-----| 
A|----------------------------------------5-----5-----------------------------------------5-----5-| 
E|3-----------------------------------------------3-----------------------------------------------| 

0:08 

G|------------------------------------------------------------------------------------------------| 
D|------------------------------------------5-----------------------------------------------------| 
A|----------------------------------------5-----5-6-----------------------------------------6-----| 
E|3---------------------------------------------------------------------------------------6-----6-| 

G|------------------------------------------------------------------------------------------------| 
D|------------------------------------------------------------------------------------------5-----| 
A|------------------------3-----------5---------------------------------------------------5-----5-| 
E|3-----------------------------------------------3-----------------------------------------------| 

0:22 

G|------------------------------------------------------------------8-----------------------------| 
D|------------------5-----5-----5-----5-----5---------------------8-----8-------------------------| 
A|----------------5-----5-----------------5-----5-6-----6-----6-----------6-----6-----6-----6-----| 
E|3-----3-----3---------------------------------------------------------------------------6-----6-| 

G|------------------------------------------------------------------------------------------------| 
D|------------------5-----------------------------------------------5-----5-----5-----5-----5---7-| 
A|----------------5-----5-3-----3-----5-----5---------------------5-----5-----------------5-------| 
E|3-----3-----3---------------------------------3-3-----3-----3-----------------------------------| 

0:36 

G|------------------------------------------------------------------------------------------------| 
D|8-----8-----8---8-----------------------------------------------------------------------5-7-----| 
A|----------------------8-----------------5-6---7-8-----8-----8---8-------8-----8-----8---------8-| 
E|------------------------6-----6-----6---------------------------------8-----------8-------------| 

G|------------------------------------------------------------------------------------------------| 
D|------------------------------------------5-----------------------------------------------4-----| 
A|6-----6-----6---6-------6-----6-----6---8-----6-5-----5-----5---5-------5-----5-----5---7-------| 
E|----------6-----------6-----------6-----------------------5-----------5-----------5-------------| 

0:50 

G|------------------------------------------------------------------------------------------------| 
D|8-----8-----8---8-----------------------------------------------------------------------5-7-----| 
A|----------8-----------8-----------------5-6---7-8-----8-----8---8-------8-----8-----8---------8-| 
E|------------------------6-----6-----6---------------------8-----------8-----------8-------------| 

G|------------------------------------------------| 
D|------------------------------------------5-----| 
A|6-----6-----6---6-------6-----6-----6---8-----6-| 
E|----------6-----------6-----------6-------------| 

G|------------------------------------------------------------------------------------------------| 
D|------------------------------------------------------------------------------------------------| 
A|5-----5-----5-----5-----5-----5-----5-----5-----5-----5-----5-----5-----5-----5-----5-----5-----| 
E|----------5-----------5-----------5-----------5-----------5-----------5-----------5-------------| 

1:07 Until fadeout. 

G|------------------------------------------------------------------------------------------------| 
D|------------------------------------------5-----------------------------------------------5-----| 
A|----------------------------------------5-----5-----------------------------------------5-----5-| 
E|3-----------------------------------------------3-----------------------------------------------| 

1:58 

G|------------------------------------------------------------------------------------------------| 
D|------------------------------------------5-----------------------------------------------5-----| x2 
A|----------------------------------------5-----5-----------------------------------------5-----5-| 
E|3-----------------------------------------------3-----------------------------------------------| 

2:12 

G|------------------------------------------------------------------------------------------------| 
D|------------------------------------------5-----------------------------------------------------| 
A|----------------------------------------5-----5-6-----------------------------------------6-----| 
E|3---------------------------------------------------------------------------------------6-----6-| 

G|------------------------------------------------------------------------------------------------| 
D|------------------------------------------------------------------------------------------5-----| 
A|------------------------3-----------5---------------------------------------------------5-----5-| 
E|3-----------------------------------------------3-----------------------------------------------| 

2:26 

G|------------------------------------------------------------------8-----------------------------| 
D|------------------5-----5-----5-----5-----5---------------------8-----8-------------------------| 
A|----------------5-----5-----------------5-----5-6-----6-----6-----------6-----6-----6-----6-----| 
E|3-----3-----3---------------------------------------------------------------------------6-----6-| 

G|------------------------------------------------------------------------------------------------| 
D|------------------5-----------------------------------------------5-----5-----5-----5-----5---7-| 
A|----------------5-----5-3-----3-----5-----5---------------------5-----5-----------------5-------| 
E|3-----3-----3---------------------------------3-3-----3-----3-----------------------------------| 

2:40 

G|------------------------------------------------------------------------------------------------| 
D|8-----8-----8-----8---------------------------------------------------------------------5-7-----| 
A|----------------8-----8-----------------5-6---7-8-----8-----8-----8-----8-----8-----8---------8-| 
E|------------------------6-----6-----6---------------------------8-----8-----------8-------------| 

G|------------------------------------------------------------------------------------------------| 
D|------------------------------------------5-----------------------------------------------------| 
A|6-----6-----6-----6-----6-----6-----6---8-----6-5-----5-----5-----5-----5-----5-----5-----5-----| 
E|----------6-----6-----6-----------6-----------------------5-----------5-----------5-----5-------| 

2:53 

G|------------------------------------------------------------------------------------------------| 
D|8-----8-----8-----8-----8-----8-----8-----------------------------------------------------------| 
A|----------8-----------8-----------8-------6---7-8-----8-----8---8-------8-----8-----8-----8-----| 
E|----------------------------------------6-----------------8-----------8-----------8-----8-------| 

G|------------------------------------------------| 
D|------------------------------------------5-----| 
A|6-----6-----6-----6-----6-----6-----6---8-----6-| 
E|----------6-----------6-----------6-------------| 

G|------------------------------------------------------------------------------------------------| 
D|------------------------------------------------------------------------------------------------| 
A|5-----5-----5---5-------5-----5-----5---5-------5-----5-----5-----5-----5-----5-----5-----5-----| 
E|----------5-----------5-----------5-----------5-----------5-----------5-----------5-------------| 

G|------------------------------------------------------------------------------------------------------| 
D|------------------------------------------------------------------------------------------------------| 
A|------------------------------------------------------------------------------------------------------| 
E|3-----3-----3-----3-----3-----3-----3-----3-----3-----------------------------------------------4-----| 
		  

See also:

bass Eddie Floyd - High-heel Sneakers bass The Murmaids - Huntington Flats bass The Murmaids - Popsicles And Icicles bass The Murmaids - Comedy And Tragedy bass The Miracles - Love Machine bass Curtis Mayfield - Freddys Dead
e-chords

Other versions:

bass The Association - The Bus Song
auto scroll beats size up size down change color hide chords drawings
tab show chords e-chords YouTube Clip e-chords hide all tabs e-chords go to top tab

share