The Association

No Fair At All

The Association

bass

by  ALYSLIMA

save to print version add songbook text version e-mail correct tuner
chordsukulelecavacokeyboardtabbassdrumsharmonicaflute Guitar Pro
close

there isn't a video lesson for this song

chords

No Fair At All

	  		
G|----| 
D|----| 
A|9-\-| 
E|----| 

G|----------------------------------------4-----------4-----------| 
D|--------7-----------7-------------------------------------------| 
A|5---------------5-----------5---5-----------5---5-----------5---| 
E|----------------------------------------------------------------| 

G|--------6-----------6-------------------7-----------7-----------| 
D|----------------------------------------------------------------| 
A|5-----------5---5-----------5---5-----------5---5-----------5---| 
E|----------------------------------------------------------------| 

0:11 

G|--------7-----------7-------------------7-----------7-----------| 
D|----------------------------------------------------------------| x3 
A|5-----------5---5-----------5---5-----------5---5-----------5---| 
E|----------------------------------------------------------------| 

G|--------7-----------7-------------------7---------------7-------| 
D|----------------------------------------------------------------| 
A|5-----------5---5-----------5---5-----------5---5---------------| 
E|----------------------------------------------------------------| 

0:31 

G|------------------------------------------------6---4-----------| 
D|5-----------5---5-------5---7---4-----------4-------------6-4---| 
A|----------------------------------------------------------------| 
E|----------------------------------------------------------------| 

G|----------------------------------------------------------------| 
D|2-----------2---4-------5---------------------------------------| 
A|------------------------------------------------------2-----4---| 
E|--------------------------------5-----------5---5---------------| 

G|----------------------------------------4-----------4-----------| 
D|--------7-----------7-------------------------------------------| 
A|5---------------5-----------5---5-----------5---5-----------5---| 
E|----------------------------------------------------------------| 

G|--------6-----------6-------------------7-----------7-----------| 
D|----------------------------------------------------------------| 
A|5-----------5---5-----------5---5-----------5---------------5---| 
E|----------------------------------------------------------------| 

0:51 

G|--------7-----------7-------------------7-----------7-----------| 
D|----------------------------------------------------------------| x3 
A|5-----------5---5-----------5---5-----------5---5-----------5---| 
E|----------------------------------------------------------------| 

G|--------7-----------7-------------------7---------------7-------| 
D|----------------------------------------------------------------| 
A|5-----------5---5-----------5---5-----------5---5---------------| 
E|----------------------------------------------------------------| 

1:11 

G|------------------------------------------------6---4-----------| 
D|5-----------5---5-----------7---4-----------4-----------6---4---| 
A|----------------------------------------------------------------| 
E|----------------------------------------------------------------| 

G|----------------------------------------------------------------| 
D|2-----------2---4-------5---------------------------------------| 
A|------------------------------------------------------2-----4---| 
E|--------------------------------5-----------5---5---------------| 

G|----------------------------------------4-----------4-----------| 
D|--------7-----------7-------------------------------------------| 
A|5---------------5-----------5---5-----------5---5-----------5---| 
E|----------------------------------------------------------------| 

G|--------6-----------6-------------------7-----------7-----------| 
D|----------------------------------------------------------------| 
A|5-----------5---5-----------5---5-----------5---5-----------5---| 
E|----------------------------------------------------------------| 

1:31. 

G|----------------------------------------4-----------4-----------| 
D|--------7-----------7-------------------------------------------| 
A|5-----------5---5-----------5---5-----------5---5-----------5---| 
E|----------------------------------------------------------------| 

G|--------6-----------6-------------------7-----------7-----------| 
D|----------------------------------------------------------------| 
A|5-----------5---5-----------5---5-----------5---5-----------5---| 
E|----------------------------------------------------------------| 

G|----------------------------------------4-----------4-----------| 
D|--------7-----------7-------------------------------------------| 
A|5-----------5---5-----------5---5-----------5---5-----------5---| 
E|----------------------------------------------------------------| 

G|--------6-----------6-------------------7---------------7-------| 
D|----------------------------------------------------------------| 
A|5-----------5---5-----------5---5-----------5---5---------------| 
E|----------------------------------------------------------------| 

1:51 

G|------------------------------------------------6---4-----------| 
D|5-----------5---5-------5---7---4-------4-----------------6-4---| 
A|----------------------------------------------------------------| 
E|----------------------------------------------------------------| 

G|----------------------------------------------------------------| 
D|2-----------2---4-------5---------------------------------------| 
A|------------------------------------------------------2-----4---| 
E|--------------------------------5-----------5---5---------------| 

G|--------------------------------4-----------6-----------4-------| 
D|--------7-----------7---------------------------------------5---| x2 
A|5---------------5-----------5-----------5-----------5-----------| 
E|----------------------------------------------------------------| 

2:11 

G|--------------------4-----------------------4-------------------| 
D|--------7-----------------------7-------------------------------| 
A|5---------------5-----------5-----------5-----------------------| 
E|----------------------------------------------------------------| 

Until fadeout. 

G|--------------------------------4-----------6-----------4-------| 
D|--------7-----------7---------------------------------------5---| 
A|5---------------5-----------5-----------5-----------5-----------| 
E|----------------------------------------------------------------| 
		  

See also:

bass Eddie Floyd - High-heel Sneakers bass The Murmaids - Huntington Flats bass The Murmaids - Popsicles And Icicles bass The Murmaids - Comedy And Tragedy bass The Miracles - Love Machine bass Curtis Mayfield - Freddys Dead
e-chords

Other versions:

bass The Association - No Fair At All
auto scroll beats size up size down change color hide chords drawings
tab show chords e-chords YouTube Clip e-chords hide all tabs e-chords go to top tab

share