The Animals

home > The Animals

We Gotta Get Out Of This Place Bass Tab

The Animals

Difficulty: nolevelnolevel

by terr%5Fschmitz

tuner correct add songbook print version text version save to e-mail
chordsukulelecavacokeyboardtabbassdrumsharmonicsflute Guitar Pro
chords

We Gotta Get Out Of This Place

  		
Tuning : E A D G Time Signature: 4/4 

 |       |       |       |        |       |       |       |         
|--------0-------3---2---0-------|--------0-------3---2---0-------| 
|----------------------------3---|----------------------------3---| 
|3-----------3-------------------|3-----------3-------------------| 
|--------------------------------|--------------------------------| 

 |       |       |       |        |       |       |       |         
|--------0-------3---2---0-------|--------0-------3---2---0-------| 
|----------------------------3---|----------------------------3---| 
|3-----------3-------------------|3-----------3-------------------| 
|--------------------------------|--------------------------------| 

 |       |       |       |        |       |       |       |         
|--------0-------3---2---0-------|--------0-------3---2---0-------| 
|----------------------------3---|----------------------------3---| 
|3-----------3-------------------|3-----------3-------------------| 
|--------------------------------|--------------------------------| 

 |       |       |       |        |       |       |       |         
|--------0-------3---2---0-------|--------0-------3---2---0-------| 
|----------------------------3---|----------------------------3---| 
|3-----------3-------------------|3-----------3-------------------| 
|--------------------------------|--------------------------------| 

 |       |       |       |        |       |       |       |         
|--------0-------3---2---0-------|--------0-------3---2---0-------| 
|----------------------------3---|----------------------------3---| 
|3-----------3-------------------|3-----------3-------------------| 
|--------------------------------|--------------------------------| 

 |       |       |       |        |       |       |       |         
|--------0-------3---2---0-------|--------0-------3---2---0-------| 
|----------------------------3---|----------------------------3---| 
|3-----------3-------------------|3-----------3-------------------| 
|--------------------------------|--------------------------------| 

 |       |       |       |        |       |       |       |         
|--------0-------3---2---0-------|--------0-------3---2---0-------| 
|----------------------------3---|----------------------------3---| 
|3-----------3-------------------|3-----------3-------------------| 
|--------------------------------|--------------------------------| 

 |       |       |       |        |       |       |       |         
|--------0-------3---2---0-------|--------0-------3---2---0-------| 
|----------------------------3---|----------------------------3---| 
|3-----------3-------------------|3-----------3-------------------| 
|--------------------------------|--------------------------------| 

 |       |       |       |        |       |       |       |         
|--------0-------3---2---0-------|--------0-------3---2---0-------| 
|----------------------------3---|----------------------------3---| 
|3-----------3-------------------|3-----------3-------------------| 
|--------------------------------|--------------------------------| 

 |       |       |       |        |       |       |       |         
|--------0-------3---2---0-------|--------0-------3---2---0-------| 
|----------------------------3---|----------------------------3---| 
|3-----------3-------------------|3-----------3-------------------| 
|--------------------------------|--------------------------------| 

 |       |       |       |        |       |       |       |         
|--------0-------3---2---0-------|--------0-------3---2---0-------| 
|----------------------------3---|----------------------------3---| 
|3-----------3-------------------|3-----------3-------------------| 
|--------------------------------|--------------------------------| 

 |       |       |       |        |       |       |       |         
|--------0-------3---2---0-------|--------0-------3---2---0-------| 
|----------------------------3---|----------------------------3---| 
|3-----------3-------------------|3-----------3-------------------| 
|--------------------------------|--------------------------------| 

 |       |       |       |        |       |       |       |         
|--------0-------3---2---0-------|--------0-------3---2---0-------| 
|----------------------------3---|----------------------------3---| 
|3-----------3-------------------|3-----------3-------------------| 
|--------------------------------|--------------------------------| 

 |       |       |       |        |       |       |       |         
|--------0-------3---2---0-------|--------0-------3---2---0-------| 
|----------------------------3---|----------------------------3---| 
|3-----------3-------------------|3-----------3-------------------| 
|--------------------------------|--------------------------------| 

 |       |       |       |        |       |       |       |         
|--------0-------3---2---0-------|--------0-------3---2---0-------| 
|----------------------------3---|----------------------------3---| 
|3-----------3-------------------|3-----------3-------------------| 
|--------------------------------|--------------------------------| 

 |       |       |       |        |       |       |       |         
|--------0-------3---2---0-------|--------0-------3---2---0-------| 
|----------------------------3---|----------------------------3---| 
|3-----------3-------------------|3-----------3-------------------| 
|--------------------------------|--------------------------------| 

 |       |       |       |        |       |       |       |         
|--------0-------3---2---0-------|--------0-------3---2---0-------| 
|----------------------------3---|----------------------------3---| 
|3-----------3-------------------|3-----------3-------------------| 
|--------------------------------|--------------------------------| 

 |       |       |       |        |       |       |       |         
|--------0-------3---2---0-------|--------0-------3---2---0-------| 
|----------------------------3---|----------------------------2---| 
|3-----------3-------------------|3-----------3-------------------| 
|--------------------------------|--------------------------------| 

 |       |       |       |        |       |       |       |         
|----------------------------3---|3---3---3---5---5---5---5---5---| 
|3-------3---3---3---3---3-------|--------------------------------| 
|--------------------------------|--------------------------------| 
|--------------------------------|--------------------------------| 

 |       |       |       |        |       |       |       |         
|--------------------------------|0---0---0---5---5---5---5---5---| 
|3---3---3---3---3---3---3---3---|--------------------------------| 
|--------------------------------|--------------------------------| 
|--------------------------------|--------------------------------| 

 |       |       |       |        |       |       |       |         
|----------------------------3---|3---3---3---5---5---5---5---5---| 
|3---3---3---3---3---3---3-------|--------------------------------| 
|--------------------------------|--------------------------------| 
|--------------------------------|--------------------------------| 

 |       |       |       |        |       |       |       |         
|7-------------------------------|--------------------------------| 
|--------------------------------|--------------------------------| 
|--------------------------------|--------------------------------| 
|--------------------------------|--------------------------------| 

 |       |       |       |        |       |       |       |         
|--------------------------------|--------------------------------| 
|3-----------1-------------------|--------------------------------| 
|--------------------------------|1-----------3-------------------| 
|--------------------------------|--------------------------------| 

 |       |       |       |        |       |       |       |         
|--------------------------------|--------------------------------| 
|3-----------1-------------------|--------------------------------| 
|--------------------------------|1-----------3-------------------| 
|--------------------------------|--------------------------------| 

 |       |       |       |        |       |       |       |         
|--------0-------3---2---0-------|--------0-------3---2---0-------| 
|----------------------------3---|----------------------------3---| 
|3-----------3-------------------|3-----------3-------------------| 
|--------------------------------|--------------------------------| 

 |       |       |       |        |       |       |       |         
|--------0-------3---2---0-------|--------0-------3---2---0-------| 
|----------------------------3---|----------------------------3---| 
|3-----------3-------------------|3-----------3-------------------| 
|--------------------------------|--------------------------------| 

 |       |       |       |        |       |       |       |         
|--------0-------3---2---0-------|--------0-------3---2---0-------| 
|----------------------------3---|----------------------------3---| 
|3-----------3-------------------|3-----------3-------------------| 
|--------------------------------|--------------------------------| 

 |       |       |       |        |       |       |       |         
|--------0-------3---2---0-------|--------0-------3---2---0-------| 
|----------------------------3---|----------------------------3---| 
|3-----------3-------------------|3-----------3-------------------| 
|--------------------------------|--------------------------------| 

 |       |       |       |        |       |       |       |         
|--------0-------3---2---0-------|--------0-------3---2---0-------| 
|----------------------------3---|----------------------------3---| 
|3-----------3-------------------|3-----------3-------------------| 
|--------------------------------|--------------------------------| 

 |       |       |       |        |       |       |       |         
|--------0-------3---2---0-------|--------0-------3---2---0-------| 
|----------------------------3---|----------------------------3---| 
|3-----------3-------------------|3-----------3-------------------| 
|--------------------------------|--------------------------------| 

 |       |       |       |        |       |       |       |         
|--------0-------3---2---0-------|--------0-------3---2---0-------| 
|----------------------------3---|----------------------------3---| 
|3-----------3-------------------|3-----------3-------------------| 
|--------------------------------|--------------------------------| 

 |       |       |       |        |       |       |       |         
|--------0-------3---2---0-------|--------0-------3---2---0-------| 
|----------------------------3---|----------------------------3---| 
|3-----------3-------------------|3-----------3-------------------| 
|--------------------------------|--------------------------------| 

 |       |       |       |        |       |       |       |         
|--------0-------3---2---0-------|--------0-------3---2---0-------| 
|----------------------------3---|----------------------------3---| 
|3-----------3-------------------|3-----------3-------------------| 
|--------------------------------|--------------------------------| 

 |       |       |       |        |       |       |       |         
|--------0-------3---2---0-------|--------0-------3---2---0-------| 
|----------------------------3---|----------------------------3---| 
|3-----------3-------------------|3-----------3-------------------| 
|--------------------------------|--------------------------------| 

 |       |       |       |        |       |       |       |         
|--------0-------3---2---0-------|--------0-------3---2---0-------| 
|----------------------------3---|----------------------------3---| 
|3-----------3-------------------|3-----------3-------------------| 
|--------------------------------|--------------------------------| 

 |       |       |       |        |       |       |       |         
|--------0-------3---2---0-------|--------0-------3---2---0-------| 
|----------------------------3---|----------------------------2---| 
|3-----------3-------------------|3-----------3-------------------| 
|--------------------------------|--------------------------------| 

 |       |       |       |        |       |       |       |         
|----------------------------3---|3---3---3---5---5---5---5---5---| 
|3-------3---3---3---3---3-------|--------------------------------| 
|--------------------------------|--------------------------------| 
|--------------------------------|--------------------------------| 

 |       |       |       |        |       |       |       |         
|--------------------------------|0---0---0---5---5---5---5---5---| 
|3---3---3---3---3---3---3---3---|--------------------------------| 
|--------------------------------|--------------------------------| 
|--------------------------------|--------------------------------| 

 |       |       |       |        |       |       |       |         
|----------------------------3---|3---3---3---5---5---5---5---5---| 
|3---3---3---3---3---3---3-------|--------------------------------| 
|--------------------------------|--------------------------------| 
|--------------------------------|--------------------------------| 

 |       |       |       |        |       |       |       |         
|7-------------------------------|--------------------------------| 
|--------------------------------|--------------------------------| 
|--------------------------------|--------------------------------| 
|--------------------------------|--------------------------------| 

 |       |       |       |        |       |       |       |         
|--------------------------------|--------------------------------| 
|3-----------1-------------------|--------------------------------| 
|--------------------------------|1-----------3-------------------| 
|--------------------------------|--------------------------------| 

 |       |       |       |        |       |       |       |         
|--------------------------------|--------------------------------| 
|3-----------1-------------------|--------------------------------| 
|--------------------------------|1-----------3-------------------| 
|--------------------------------|--------------------------------| 

 |       |       |       |        |       |       |       |         
|----------------------------3---|3---3---3---5---5---5---5---5---| 
|3-------3---3---3---3---3-------|--------------------------------| 
|--------------------------------|--------------------------------| 
|--------------------------------|--------------------------------| 

 |       |       |       |        |       |       |       |         
|--------------------------------|0---0---0---5---5---5---5---5---| 
|3---3---3---3---3---3---3---3---|--------------------------------| 
|--------------------------------|--------------------------------| 
|--------------------------------|--------------------------------| 

 |       |       |       |        |       |       |       |         
|----------------------------3---|3---3---3---5---5---5---5---5---| 
|3---3---3---3---3---3---3-------|--------------------------------| 
|--------------------------------|--------------------------------| 
|--------------------------------|--------------------------------| 

 |       |       |       |        |       |       |       |         
|7-------------------------------|--------------------------------| 
|--------------------------------|--------------------------------| 
|--------------------------------|--------------------------------| 
|--------------------------------|--------------------------------| 

 |       |       |       |        |       |       |       |         
|--------------------------------|--------------------------------| 
|3-----------1-------------------|--------------------------------| 
|--------------------------------|1-----------3-------------------| 
|--------------------------------|--------------------------------| 

 |       |       |       |        |       |       |       |         
|--------------------------------|--------------------------------| 
|3-----------1-------------------|--------------------------------| 
|--------------------------------|1-----------3-------------------| 
|--------------------------------|--------------------------------| 

 |       |       |       |        |       |       |       |         
|--------------------------------|--------------------------------| 
|3-----------1-------------------|--------------------------------| 
|--------------------------------|1-----------3-------------------| 
|--------------------------------|--------------------------------| 

 |       |       |       |        |       |       |       |         
|--------------------------------|--------------------------------| 
|--------------------------------|--------------------------------| 
|--------------------------------|--------------------------------| 
|--------------------------------|--------------------------------| 

 |       |       |       |        |       |       |       |         
|--------------------------------|--------------------------------| 
|--------------------------------|--------------------------------| 
|--------------------------------|--------------------------------| 
|--------------------------------|--------------------------------| 


Created with TablEdit http://www.tabledit.com/ 
	  

Full key step upFull key step up
Half key step upHalf key step up
Half key step downHalf key step down
Full key step downFull key step down
Search Paypal
auto scroll beats size up size down change color hide chords drawings
tab show chords e-chords YouTube Clip e-chords hide all tabs e-chords go to top tab