The Animals

home > The Animals

The Right Time Bass Tab

The Animals

Difficulty: nolevelnolevel

by ang%2Dletra

tuner correct add songbook print version text version save to e-mail
chordsukulelecavacokeyboardtabbassdrumsharmonicsflute Guitar Pro
chords

The Right Time

  		
Intro 
G|------------------------------------22-------22----------------------------| 
D|---------------------------------2-4------2-4------------------------------| 
A|--333333333333-555555555555--5--3-----5--3---------------------------------| 
E|---------------------------------------------------------------------------| 

verse 1 
G|----------22-------22-------22-------22-------22-------22-------22---------| 
D|-------2-4------2-4------2-4------2-4------2-4------2-4------2-4-----------| 
A|---5--3-----5--3-----5--3-----5--3-----5--3-----5--3-----5--3--------------| 
E|---------------------------------------------------------------------------| 

G|----------22---------------------------------------------------------------| 
D|-------2-4-----------------------------------------------------------------| 
A|---5--3--------------------------------------------------------------------| (continue into Chorus) 
E|---------------------------------------------------------------------------| 

Chorus 
G|----------------------------------------22---------------------------------| 
D|--------2-4--------------------------2-4------2----------------------------| 
A|----5--3-----3333333333333333333-5--3-----5--3------3-555555---------------| 
E|---------------------------------------------------------------------------| 

verse 2 
G|----------22-------22-------22-------22-------22-------22-------22---------| 
D|-------2-4------2-4------2-4------2-4------2-4------2-4------2-4-----------| 
A|---5--3-----5--3-----5--3-----5--3-----5--3-----5--3-----5--3--------------| 
E|---------------------------------------------------------------------------| 

G|-----------22---------------------------22---------------------------------| 
D|--------2-4--------------------------2-4-----------------------------------| 
A|----5--3-----3333333333333333333-5--3------333333333333--------------------| 
E|---------------------------------------------------------------------------| 

Chorus 2 
G|----------22-------22-------22-------22-------22-------22-------22---------| 
D|-------2-4------2-4------2-4------2-4------2-4------2-4------2-4-----------| 
A|---5--3-----5--3-----5--3-----5--3-----5--3-----5--3-----5--3--------------| 
E|---------------------------------------------------------------------------| 

G|----------22-------22-------22-------22-------22---------------------------| 
D|-------2-4------2-4------2-4------2-4------2-4-----------------------------| 
A|---5--3-----5--3-----5--3-----5--3-----5--3--------------------------------| 
E|---------------------------------------------------------------------------| 

verse 3 
G|----------22-------22-------22-------22-------22-------22-------22---------| 
D|-------2-4------2-4------2-4------2-4------2-4------2-4------2-4-----------| 
A|---5--3-----5--3-----5--3-----5--3-----5--3-----5--3-----5--3--------------| 
E|---------------------------------------------------------------------------| 

G|-----------22---------------------------22-------22------------------------| 
D|--------2-4--------------------------2-4------2-4--------------------------| 
A|----5--3-----555555555-333333333-5--3-----5--3-----3-555555-----------------| 
E|---------------------------------------------------------------------------| 

Chorus 3 
G|----------22-------22-------22-------22-------22-------22-------22---------| 
D|-------2-4------2-4------2-4------2-4------2-4------2-4------2-4-----------| 
A|---5--3-----5--3-----5--3-----5--3-----5--3-----5--3-----5--3--------------| 
E|---------------------------------------------------------------------------| 

G|----------22-----------------22--------------------------------------------| 
D|-------2-4----------------2-4----------------------------------------------| 
A|---5--3-----555555555-5--3-----3-555555------------------------------------| 
E|---------------------------------------------------------------------------| 

Outro 
G|---------------------------------------------------------------------------| 
D|------------444444444-2222-44-22-------------------------------------------| 
A|---33333333-5555-----------------------------------------------------------| 
E|---------------------------------------------------------------------------| 
	  

Search Paypal
auto scroll beats size up size down change color hide chords drawings
tab show chords e-chords YouTube Clip e-chords hide all tabs e-chords go to top tab