The Animals

home > The Animals

Help Me Girl Bass Tab

The Animals

Difficulty: nolevelnolevel

by RighteousDuncan

tuner correct add songbook print version text version save to e-mail
chordsukulelecavacokeyboardtabbassdrumsharmonicsflute Guitar Pro
chords

Help Me Girl

  		Title: Help Me Girl 
Artist: The Animals 
Album: The Best of Eric Burdon and the Animals (1966-1968) 
Bassist: Chas Chandler 
 
Instrument: 4 String Bass 
 
Tabbed by: RighteousDuncan ([email protected]) 
 
Tuning: Standard (E A D G) 
 
Listen for timing (there may be a fill or two I didn't catch): 
 
Intro: 
 
G|-----------------------------------------|| 
D|-----------------------------------------|| 
A|-----------------------------------------|| 
E|--8--8-8--8-6--6-6--6-4--4-4--4-4-2-3-4--|| 
 
G|-----------------------------------------|| 
D|-----------------------------------------|| 
A|-----------------------------------------|| 
E|--8--8-8--8-6--6-6--6-4--4-4--4-4-2-3-4--|| 
 
Verse: 
 
G|-----------------------------------------|| 
D|-----------------------------------------|| 
A|-----------------------------------------|| 
E|--8--8-8--8-6--6-6--6-4--4-4--4-4-2-3-4--|| 
 
G|-----------------------------------------|| 
D|-----------------------------------------|| 
A|-----------------------------------------|| 
E|--8--8-8--8-6--6-6--6-4--4-4--4-4-2-3-4--|| 
 
G|----------------------------------------------|| 
D|----------------------------------------------|| 
A|----------------------------------------------|| 
E|-8-8-8-5-6--8-8-8-5-6--8-8-8-5-6--8--8-8-5-6--|| 
 
Chorus: 
 
G|-------------------------------------------------------------------|| 
D|-------------------------------------------------------------------|| 
A|--1--1-1----------1--1-1-----------8-8-8-------8--------8-8-8------|| 
E|----------4--4-4----------4--4-4----------5-6----5-6-7--------5-6--|| 
 
G|-------------|| 
D|-------------|| 
A|-8-----------|| 
E|---5-6-7-----|| 
 
Verse: 
 
G|-----------------------------------------|| 
D|-----------------------------------------|| 
A|-----------------------------------------|| 
E|--8--8-8--8-6--6-6--6-4--4-4--4-4-2-3-4--|| 
 
G|-----------------------------------------|| 
D|-----------------------------------------|| 
A|-----------------------------------------|| 
E|--8--8-8--8-6--6-6--6-4--4-4--4-4-2-3-4--|| 
 
G|-----------------------------------------|| 
D|-----------------------------------------|| 
A|-----------------------------------------|| 
E|--8--8-8--8-6--6-6--6-4--4-4--4-4-2-3-4--|| 
 
G|----------------------------------------------|| 
D|----------------------------------------------|| 
A|----------------------------------------------|| 
E|-8-8-8-5-6--8-8-8-5-6--8-8-8-5-6--8--8-8-5-6--|| 
 
Chorus: 
 
G|-------------------------------------------------------------------|| 
D|-------------------------------------------------------------------|| 
A|--1--1-1----------1--1-1-----------8-8-8-------8--------8-8-8------|| 
E|----------4--4-4----------4--4-4----------5-6----5-6-7--------5-6--|| 
 
G|-------------|| 
D|-------------|| 
A|-8-----------|| 
E|---5-6-7-----|| 
 
Bridge: 
 
G|-------------------------------------------------------------------|| 
D|-------------------------------------------------------------------|| 
A|-------------------------------------------------------------------|| 
E|--8--8-8--8--8-8-5-6--4--4-4--4--4-4-4-2-3-4-3--3-3--3--3-3--------|| 
 
G|-----------------------------------------|| 
D|-----------------------------------------|| 
A|-----------------------------------------|| 
E|--8--8-8--8-6--6-6--6-4--4-4--4-4-2-3-4--|| 
 
G|-----------------------------------------|| 
D|-----------------------------------------|| 
A|-----------------------------------------|| 
E|--8--8-8--8-6--6-6--6-4--4-4--4-4-2-3-4--|| 
 
G|----------------------------------------------|| 
D|----------------------------------------------|| 
A|----------------------------------------------|| 
E|-8-8-8-5-6--8-8-8-5-6--8-8-8-5-6--8--8-8-5-6--|| 
 
 
Chorus: 
 
G|-------------------------------------------------------------------|| 
D|-------------------------------------------------------------------|| 
A|--1--1-1----------1--1-1-----------8-8-8-------8--------8-8-8------|| 
E|----------4--4-4----------4--4-4----------5-6----5-6-7--------5-6--|| 
 
G|-------------|| 
D|-------------|| 
A|-8-----------|| 
E|---5-6-7-----|| 
 

	  

Full key step upFull key step up
Half key step upHalf key step up
Half key step downHalf key step down
Full key step downFull key step down
Search Paypal
auto scroll beats size up size down change color hide chords drawings
tab show chords e-chords YouTube Clip e-chords hide all tabs e-chords go to top tab