Tequila Baby

51

Tequila Baby

bass

by  FASTMAN

save to print version add songbook text version e-mail correct tuner
chordsukulelecavacokeyboardtabbassdrumsharmonicaflute Guitar Pro
close

there isn't a video lesson for this song

chords

51

	  		Intro: O baixo entra no final da segunda vez que a guitarra faz o riff de entrada 
G|-------------------| 
D|-------------------| 
A|-------7------7---| 
E|----5-----5-------| 
 
G|-------------------------------------------------------------------| 
D|-------------------------------------------------------------------| 
A|----------------------------------------7--7-7-----------7--7-7-|       6x Obs: As duas últimas    
E|----2-2-2-2-2-2-2-2-2-------5-5-5------------5-5-5----------|               vezes é só o baixo 
Verso: 
G|--------------------------------------------------------------------| 
D|--------------------------------------------------------------------| 
A|----------------------------------------7---7-7----------7---7-7-|       4x 
E|----2-2-2-2-2-2-2-2-2-------5-5-5------------5-5-5-----------| 
 
Refrão 
 
G|------------------------------------------------------------------------------------------------------------| 
D|------------------------------------------------------------------------------------------------------------| 
A|-------------------------------7-7-7-7-7----------------------------5-5-5-5-5—7-7-7-7-7---7-9-10-|  
E|----2-2-2-2-2---5-5-5-5-5--------------10-9-7-----2-2-2-2-2----------------------------------------| 
 
G|-----------------------------------------------------------------------------------------------------| 
D|-----------------------------------------------------------------------------------------------------| 
A|-------------------------------7-7-7-7-7----------------------------5-5-5-5-5—7-7-7-7-7----|  
E|----2-2-2-2-2---5-5-5-5-5--------------10-9-7-----2-2-2-2-2--------------------------------| 
 
G|---------------------------------------| 
D|---------------------------------------| 
A|---5-5-5-5-5-5-5-5-5-5-5-5-5-5--|  
E|---------------------------------------| 
       Mas é uma boa idéia.... 
 
Solo pós Refrão: junto com o riff da guitarra 
G|-------------------------------------------------------------------| 
D|-------------------------------------------------------------------| 
A|----------------------------------------7--7-7-----------7--7-7-|       2x 
E|----2-2-2-2-2-2-2-2-2-------5-5-5------------5-5-5----------|                
 
Verso: 
G|---------------------------------------------------------------------| 
D|---------------------------------------------------------------------| 
A|----------------------------------------7-7-7-7----------7-7-7-7-|       4x 
E|----2-2-2-2-2-2-2-2-2-------5-5-5------------5-5-5------------| 
 
Refrão 
G|------------------------------------------------------------------------------------------------------------| 
D|------------------------------------------------------------------------------------------------------------| 
A|-------------------------------7-7-7-7-7----------------------------5-5-5-5-5—7-7-7-7-7---7-9-10-|  
E|----2-2-2-2-2---5-5-5-5-5--------------10-9-7-----2-2-2-2-2----------------------------------------| 
 
G|-----------------------------------------------------------------------------------------------------| 
D|-----------------------------------------------------------------------------------------------------| 
A|-------------------------------7-7-7-7-7----------------------------5-5-5-5-5—7-7-7-7-7----|  
E|----2-2-2-2-2---5-5-5-5-5--------------10-9-7-----2-2-2-2-2--------------------------------| 
 
G|---------------------------------------| 
D|---------------------------------------| 
A|---5-5-5-5-5-5-5-5-5-5-5-5-5-5--|  
E|---------------------------------------| 
        Mas é uma boa idéia.... 
 
Solo: 
G|--------------------------------------------------------| 
D|--------------------------------------------------------| 
A|--------------------------------------------------------|  2x 
E|--2-2---5-5---7-7---2-2---5-5---7-7—0-0-0-0-0-| 
 
G|----------------------------------------------------------------------------| 2x   Obs: (Este parte não está 
D|---/4-4-4----\2-2-2----/4-4-4----/6-6-6---/7-7-7----\2-2-2----------| correto mas da pa quebrar um 
A|----------------------------------------------------------------------------|  galho) 
E|----------------------------------------------------------------------------|  
 
G|--------------------------------------------| 
D|--------------------------------------------| 
A|--------------------------------------------|  8x 
E|--2-2---5-5---7-7---2-2---5-5---7-7---| 
 
Ultimo Refrão: 
 
G|------------------------------------------------------------------------------------------------------------| 
D|------------------------------------------------------------------------------------------------------------| 
A|-------------------------------7-7-7-7-7----------------------------5-5-5-5-5—7-7-7-7-7---7-9-10-|  
E|----2-2-2-2-2---5-5-5-5-5--------------10-9-7-----2-2-2-2-2----------------------------------------| 
 
G|-----------------------------------------------------------------------------------------------------| 
D|-----------------------------------------------------------------------------------------------------| 
A|-------------------------------7-7-7-7-7----------------------------5-5-5-5-5—7-7-7-7-7----|  
E|----2-2-2-2-2---5-5-5-5-5--------------10-9-7-----2-2-2-2-2--------------------------------| 
 
G|---------------------------------------| 
D|---------------------------------------| 
A|---5-5-5-5-5-5-5-5-5-5-5-5-5-5--|  
E|---------------------------------------| 
        Mas é uma boa idéia.... 
 
 
Cifra Tirada Por Mauricio Schmitz da Banda CONSEQUENCIA 
muito Punk Rock... Hey Ho Let’s Go…Tequila Na Veia Ramones no coração Valew!
		  

auto scroll beats size up size down change color hide chords drawings
tab show chords e-chords YouTube Clip e-chords hide all tabs e-chords go to top tab

share