Temas Variados

home > Temas Variados

Ligação a cobrar (ver. 2) Bass Tab

Temas Variados

Difficulty: nolevelnolevel

by rednirjam

tuner correct add songbook print version text version save to e-mail
chordsukulelecavacokeyboardtabbassdrumsharmonicsflute Guitar Pro
chords

Ligação a cobrar (ver. 2)

  		p acompanhar o solo da guitarra 
g---------------------- 
d---------------------- 
a----------------5----- 
e--0--2--3------------- 
 
p f o solinho d guitarra no baixo 
 
g-------------------------7--------- 
d---------7--10---7--9-------9--10-- 
a---10------------------------------ 
e----------------------------------- 
 
qualquer duvida meu email é [email protected] 

	  

Search Paypal
auto scroll beats size up size down change color hide chords drawings
tab show chords e-chords YouTube Clip e-chords hide all tabs e-chords go to top tab