Tears For Fears

home > Tears For Fears

Sowing the seeds of Love Bass Tab

Tears For Fears

Difficulty: nolevelnolevel

by marcnagel

tuner correct add songbook print version text version save to e-mail
chordsukulelecavacokeyboardtabbassdrumsharmonicsflute Guitar Pro
chords

Sowing the seeds of Love

Year: 1989 - Album: Shout: The Very Best of Tears for Fears

(Orzabal / Smith)

  		
Intro 
       (rest x3) 
G  |-----------------| 
D  |-----------------| 
A  |-----------------| 
Eb |-----------------| 
     1 & 2 & 3 & 4 & 

verse 1 
G  |-----------------|-----------------|-----------------|-----------------| 
D  |-----------------|-------------7---|-----8-----------|---------------7-| 
A  |-----------------|-6-6-6-0-5-5---5-|-6-6---6-5-5-5-5-|-6-6-6-6-5-5-5---| 
Eb |-4-4-4-\-2-2-2-/-|-----------------|-----------------|-----------------| 
     1 & 2 & 3 & 4 &   1 & 2 & 3 & 4 &   1 & 2 & 3 & 4 &   1 & 2 & 3 & 4 & 

G  |-----------------|-----------------|-----------------|-----------------| 
D  |-----------------|-------------7---|-------------7---|-----8---7---7---| 
A  |-----------------|-6-6-6-6-5-5---5-|-6-6-6-0-5-5---5-|-6-6---5---5---5-| 
Eb |-4-4-4-4\2-2-2-/-|-----------------|-----------------|-----------------| 
     1 & 2 & 3 & 4 &   1 & 2 & 3 & 4 &   1 & 2 & 3 & 4 &   1 & 2 & 3 & 4 & 

                         2/4 
G  |-----------------|---------| 
D  |-------8-7-7-7-7-|---------| 
A  |-6-6-6-----------|-5-5-5-5-| 
Eb |-----------------|---------| 
     1 & 2 & 3 & 4 &   1 & 2 & 

Chorus(x2): 
G  |-----------------|-----------------|-----------------| 
D  |-----------------|-----------------|-----------------| 
A  |-3-3-3-3-2-2-2-2-|-0-0-0-0---------|-----------------| 
Eb |-----------------|---------4-4-4-4-|-2-2-2-2-5-5-4-4-| 
     1 & 2 & 3 & 4 &   1 & 2 & 3 & 4 &   1 & 2 & 3 & 4 & 

verse 2                                                                       s 
G  |-----------------|-----------------|-----------------|-----------------| 
D  |-----------------|-------8-----7---|-----8-----------|-------8------7--| 
A  |-----------------|-6-6-6---5-5---5-|-6-6---6-5-5-5-5-|-6-6-6---5-5-5---| 
Eb |-4-4-4-\-2-2-2-/-|-----------------|-----------------|-----------------| 
     1 & 2 & 3 & 4 &   1 & 2 & 3 & 4 &   1 & 2 & 3 & 4 &   1 & 2 & 3 & 4 & 

G  |-----------------|-----------------|-----------------|-----------------| 
D  |-----------------|-------8-----7---|-----------------|-----8---7-------| 
A  |-----------------|-6-6-6---5-5---5-|-6-6-6-6-5-5-5-5-|-6-6---5---5-5-5-| 
Eb |-4-4-4-\-2-2-2-/-|-----------------|-----------------|-----------------| 
     1 & 2 & 3 & 4 &   1 & 2 & 3 & 4 &   1 & 2 & 3 & 4 &   1 & 2 & 3 & 4 & 
                         2/4 
G  |-----------------|---------| 
D  |-----8-8-7-7-7-7-|---------| 
A  |-6-6-------------|-5-5-5-5-| 
Eb |-----------------|---------| 
     1 & 2 & 3 & 4 &   1 & 2 & 

Chorus 2(x2):                          _________________ __________________ 
                                       /1                /2 
G  |-----------------|-----------------|-----------------|-----------------| 
D  |-----------------|-----------------|-----------------|-----------------| 
A  |-3-3-3-3-2-2-2-2-|-0-0-0-0---------|-----------------|-----------------| 
Eb |-----------------|---------4-4-4-4-|-2-2-2-2-5-5-4-4-|-2-2-2-2-5-5-4---| 
     1 & 2 & 3 & 4 &   1 & 2 & 3 & 4 &   1 & 2 & 3 & 4 &   1 & 2 & 3 & 4 & 

Bridge 1 
                                          2/4 
G  |-----------------|-----------------|--------| 
D  |-----------------|-----------------|--------| 
A  |-----------------|-----------------|--------| 
Eb |-4---4---5-5-4---|-4---4---5-5-4---|-4---4--| 
     1 & 2 & 3 & 4 &   1 & 2 & 3 & 4 &   1 & 2 & 

Interlude 1 
            s     s           sss               s     s           sss 
G  |-----------------|-----------------|-----------------|-----------------| 
D  |-----------------|-----------------|-----------------|-----------------| 
A  |-8-------8-8---8-|-6-------6-6-----|-8-------8-8---8-|-6-------6-6-----| 
Eb |--------9-----9--|--------7-7------|--------9-----9--|--------7-7------| 
     1 & 2 & 3 & 4 &   1 & 2 & 3 & 4 &   1 & 2 & 3 & 4 &   1 & 2 & 3 & 4 & 

            s     s           sss                                 sssss   s 
G  |-----------------|-----------------|-----------------|-----------------| 
D  |-----------------|-----------------|-----------------|-----------------| 
A  |-8-------8-8---8-|-6-------6-6-6---|-8-------8-8---8-|-6-------6-6-6---| 
Eb |--------9-----9--|--------7-7------|--------9-----9--|--------7-7-7---0| 
     1 & 2 & 3 & 4 &   1 & 2 & 3 & 4 &   1 & 2 & 3 & 4 &   1 & 2 & 3 & 4 & 

            s       s         s       s         s       s          
G  |-----------------|-----------------|-----------------|-----------------| 
D  |-----------------|-----------------|-----------------|-----------------| 
A  |-----------------|-----------------|-----------------|-----------------| 
Eb |-2------20------0|-2------20------0|-2------20------0|-2-----2-0-------| 
     1 & 2 & 3 & 4 &   1 & 2 & 3 & 4 &   1 & 2 & 3 & 4 &   1 & 2 & 3 & 4 & 

        (rest x3) 
G  |-----------------||-----------------| 
D  |-----------------||-------------15\-| 
A  |-----------------||-----------------| 
Eb |-----------------||-----------------| 
     1 & 2 & 3 & 4 &    1 & 2 & 3 & 4 & 

Bridge 2 
              (     x4     )                        (     x2     ) 
G  |-----------------|-----------------||-----------------|-----------------| 
D  |-----------------|-----------------||-----------------|-----------------| 
A  |-----------------|-----------------||-8---8---8---8---|-6---6---6---6---| 
Eb |-2---2---2---2---|-0---0---0---0---||-----------------|-----------------| 
     1 & 2 & 3 & 4 &   1 & 2 & 3 & 4 &    1 & 2 & 3 & 4 &   1 & 2 & 3 & 4 & 

G  |-----------------|-----------------| 
D  |-----------------|-----------------| 
A  |-6---6---5---5---|-5---5---5-5-5-5-| 
Eb |-----------------|-----------------| 
     1 & 2 & 3 & 4 &   1 & 2 & 3 & 4 & 

Chorus 3 
G  |-----------------|-----------------|-----------------| 
D  |-----------------|-----------------|-----------------| 
A  |-3-3-3-3-2-2-2-2-|-0-0-0-0---------|-----------------| 
Eb |-----------------|---------4-4-4-4-|-2-2-2-2-5-5-4-4-| 
     1 & 2 & 3 & 4 &   1 & 2 & 3 & 4 &   1 & 2 & 3 & 4 & 
                           s s   s s 
G  |-----------------|---------------------|-----------------| 
D  |-----------------|---------------------|-----------------| 
A  |-3-3-3-3-2-2-2-2-|-0-0-----0-----------|-----------------| 
Eb |-----------------|-----2h4---4p2-4-4-4-|-2-2-2-2-5-5-4-4-| 
     1 & 2 & 3 & 4 &   1 &  2  &  3  & 4 &   1 & 2 & 3 & 4 & 

Interlude 2 
               (     x4     )                                                  
            s                   s                                              2/4 
G  |-----------------|-----------------|-----------------|-----------------|---------| 
D  |---------------7-|-------------7---|---------------2/|-12----\---------|---------| 
A  |---------7-5-3---|-5--------05---5-|-5---5---5---5---|---------5-------|(5)------| 
Eb |-6------6--------|-----------------|-----------------|-----------------|---------| 
     1 & 2 & 3 & 4 &   1 & 2 & 3 & 4 &   1 & 2 & 3 & 4 &   1 & 2 & 3 & 4 &   1 & 2 & 

G  |-----------------|-----------------|-----------------|-----------------| 
D  |-----------------|-------8-----7---|-----8---------7-|-----------------| 
A  |-----------------|-6-6-6---5-5---5-|-6-6---6-5-5-5---|-6-6-6-6-5-5-5-5-| 
Eb |-4-4-4-\-2-2-2-/-|-----------------|-----------------|-----------------| 
     1 & 2 & 3 & 4 &   1 & 2 & 3 & 4 &   1 & 2 & 3 & 4 &   1 & 2 & 3 & 4 & 

G  |-----------------|-----------------|-----------------|-----------------| 
D  |-----------------|-------------7---|-------8-----7---|-----------------| 
A  |-----------------|-6-6-6-6-5-5---5-|-6-6-6---5-5---5-|-6-6-6-6-5-5-5-5-| 
Eb |-4-4-4-\-2-2-2-/-|-----------------|-----------------|-----------------| 
     1 & 2 & 3 & 4 &   1 & 2 & 3 & 4 &   1 & 2 & 3 & 4 &   1 & 2 & 3 & 4 & 

G  |-----------------|-----------------|-----------------|-----------------| 
D  |-----------------|-------8-----7---|-------8-----7---|-----8-----------| 
A  |-----------------|-6-6-6---5-5---5-|-6-6-6---5-5---5-|-6-6---6-5-5-5-5-| 
Eb |-4-4-4-\-2-2-2-/-|-----------------|-----------------|-----------------| 
     1 & 2 & 3 & 4 &   1 & 2 & 3 & 4 &   1 & 2 & 3 & 4 &   1 & 2 & 3 & 4 & 
                                                                   ss 
G  |-----------------|-----------------|-----------------|-----------------| 
D  |-----8-----------|-----------------|-----------------|-------8-7-7-----| 
A  |-6-6---6-5-5-5-5-|-6-6-6-6-5-5-5-5-|-6-6-6-6-5-5-5-5-|-6-6-6----5--5-5-| 
Eb |-----------------|-----------------|-----------------|-----------------| 
     1 & 2 & 3 & 4 &   1 & 2 & 3 & 4 &   1 & 2 & 3 & 4 &   1 & 2 & 3 & 4 & 
             ss 
G  |-----------------|-----------------| 
D  |-------8-7-7-----|-----------------| 
A  |-6-6-6----5--5-5-|-5-5-5-5-5-5-5-5-| 
Eb |-----------------|-----------------| 
     1 & 2 & 3 & 4 &   1 & 2 & 3 & 4 & 

Chorus 4 
G  |-----------------|-----------------|-----------------| 
D  |-----------------|-----------------|-----------------| 
A  |-3-----3-2-----2-|-0-0-0-0---------|-----------------| 
Eb |-----------------|---------4-4-4-4-|-2-----2-5---4---| 
     1 & 2 & 3 & 4 &   1 & 2 & 3 & 4 &   1 & 2 & 3 & 4 & 

G  |-----------------|-----------------|-----------------| 
D  |-----------------|-----------------|-----------------| 
A  |-3-3-3-3-2-2-2-2-|-0-0-0-0---------|-----------------| 
Eb |-----------------|---------4-4-4-4-|-2-------5---4---| 
     1 & 2 & 3 & 4 &   1 & 2 & 3 & 4 &   1 & 2 & 3 & 4 & 
                           s s 
G  |-----------------|-------------------|-----------------| 
D  |-----------------|-------------------|-----------------| 
A  |-3-3-3-3-2-2-2-2-|-0-0-----0---------|-----------------| 
Eb |-----------------|-----2h4---4-4-4-4-|-2-2-2-2-5-5-4-4-| 
     1 & 2 & 3 & 4 &   1 &  2  & 3 & 4 &   1 & 2 & 3 & 4 & 

Bridge 3 
                                          2/4 
G  |-----------------|-----------------|--------| 
D  |-----------------|-----------------|--------| 
A  |-----------------|-----------------|--------| 
Eb |-4---4---5-5-4---|-4---4---5-5-4---|-4---4--| 
     1 & 2 & 3 & 4 &   1 & 2 & 3 & 4 &   1 & 2 & 

Chorus 5 (x3): 
G  |-----------------|-----------------|-----------------| 
D  |-----------------|-----------------|-----------------| 
A  |-3-3-3-3-2-2-2-2-|-0-0-0-0---------|-----------------| 
Eb |-----------------|---------4-4-4-4-|-2-2-2-2-5-5-4-4-| 
     1 & 2 & 3 & 4 &   1 & 2 & 3 & 4 &   1 & 2 & 3 & 4 & 

Yet another Bridge: 
G  |-----------------|-----------------|--------| 
D  |-----------------|-----------------|--------| 
A  |-----------------|-----------------|--------| 
Eb |-4---4---5-5-4---|-4---4---5-5-4---|-4---4--| 
     1 & 2 & 3 & 4 &   1 & 2 & 3 & 4 &   1 & 2 & 

And -- finally! -- an OUT-Chorus: 

     v.f. 
G  |-----------------|-----------------|-----------------| 
D  |----/10\----/9\--|------/7\--------|-----------------| 
A  |-3-3-----2-2-----|-0-0-------------|-----------------| 
Eb |-----------------|---------4-4-4-4-|-2-2-2-2-5-5-4-4-| 
     1 & 2 & 3 & 4 &   1 & 2 & 3 & 4 &   1 & 2 & 3 & 4 & 

G  |-----------------|-----------------|-----------------| 
D  |-----------------|-----------------|-----------------| 
A  |-3-3-3-3-2-2-2-2-|-0-0-0-0---------|-----------------| 
Eb |-----------------|---------4-4-4-4-|-2-2-2-2-5-5-4-4-| 
     1 & 2 & 3 & 4 &   1 & 2 & 3 & 4 &   1 & 2 & 3 & 4 & 
                                                  
                                               v.o 
G  |-----------------|-----------------|-----------------| 
D  |-----------------|-----------------|-----------------| 
A  |-3-3-3-3-2-2-2-2-|-0-0-0-0---------|-----------------| 
Eb |-----------------|---------4-4-4-4-|-2-2-2-2---------| 
     1 & 2 & 3 & 4 &   1 & 2 & 3 & 4 &   1 & 2 & 3 & 4 & 



************************************ 

| /    Slide up 
| \    Slide down 
| s    Slap 
| h    Hammer-on 
| p    Pull-off 
| (n)  Ghost note 

************************************ 
	  

Search Paypal
auto scroll beats size up size down change color hide chords drawings
tab show chords e-chords YouTube Clip e-chords hide all tabs e-chords go to top tab