Taylor Raynor

Sarasota

Taylor Raynor

bass

by  GUSTSILVA

save to print version add songbook text version e-mail correct tuner
chordsukulelecavacokeyboardtabbassdrumsharmonicaflute Guitar Pro
close

there isn't a video lesson for this song

chords

Sarasota

	  		
Intro 

G|------------------------------------| 
D|------------------------------------| 
A|-------3-----------3-------3--------| 
E|---3-------3---0-------0------------| 


verse 1 

G|---------------------------------------------------------| 
D|---------------------------------------------------------| 
A|---------3--3--------3--3--------3--3--------3--3--------| x4 
E|---3--3--------3--3--------0--0--------0--0--------------| 


Chorus 

G|--------------------------------------------------------| 
D|--------------------------------------------------------| 
A|------5--3---------5--3---------5--3-------3--5---------| 
E|---0--------3---0--------3---0--------3----------3------| 


Break 

G|---------------------------------------------------------| 
D|---------------------------------------------------------| 
A|---------3--3--------3--3--------3--3--------3--3--------| x4 
E|---3--3--------3--3--------0--0--------0--0--------------|  


verse 2 

G|---------------------------------------------------------| 
D|---------------------------------------------------------| 
A|---------3--3--------3--3--------3--3--------3--3--------| x4 
E|---3--3--------3--3--------0--0--------0--0--------------| 


Chorus 

G|--------------------------------------------------------| 
D|--------------------------------------------------------| 
A|------5--3---------5--3---------5--3-------3--5---------| 
E|---0--------3---0--------3---0--------3----------3------| 


Outro 

G|-------------------------------------------------------| 
D|-------------------------------------------------------| 
A|---------------3--3--3--3--------------3--3--3--3------| 
E|---3--3--3--3--------------3--3--3--3------------------| 
		  

auto scroll beats size up size down change color hide chords drawings
tab show chords e-chords YouTube Clip e-chords hide all tabs e-chords go to top tab

share