Tame Impala

Keep On Lying

Tame Impala

bass Intermediate intermediate

by  ADALGOMES

save to print version add songbook text version e-mail correct tuner
chordsukulelecavacokeyboardtabbassdrumsharmonicaflute Guitar Pro
close

there isn't a video lesson for this song

chords

Keep On Lying

	  		

Bass Tab 


Fade in/0:00 Intro/verse 
G||------------------------------------------------------| 
D||------------------------------------------------------| 
A||--8---8-8--8--8---8-8--8--8---8-8--8------------------| 
E||--------------------------------------6---6-6--6------| 

G||----------------------------------------------------| 
D||------------------------------8---8-8--8--8---8-----| 
A||--8---8-8--8--10---10-10--10--------------------8---| 
E||----------------------------------------------------| 

G||------------------------------------------------------| 
D||------------------------------------------------------| 
A||--8---8-8--8--8---8-8--8--8---8-8--8------------------| 
E||--------------------------------------6---6-6--6------| 

G||----------------------------------------------------------||   (( X2 )) 
D||---------------------------------------------8--10-10--10-|| 
A||--8---8-8--8--10---10-10--10--11---11-11--11--------------|| 
E||----------------------------------------------------------|| 


1:02 
G||--------------------------------------------------------------| 
D||---------------8--10-10--10------------------8--8-10/12-10-10-| 
A||-11--11-11--11---------------11--11-11-10-11------------------| 
E||--------------------------------------------------------------| 

G||--------------------------------------------------------------| 
D||-----------------8--8-10/12-10-10----------------8--10-10--10-| 
A||-11--11-11-10-11-------------------11--11-11--11--------------| 
E||--------------------------------------------------------------| 

G||--------------------------------------------------------------| 
D||---------------8--10-10--10------------------8--8-10/12-10-10-| 
A||-11--11-11--11---------------11--11-11-10-11------------------| 
E||--------------------------------------------------------------|(X2) 

G||-------------------------------------------------------------| 
D||-----------------8--10-10--10-----------------8--8-10-10--10-| 
A||-11--11-11-10-11---------------11--11-8-10-11----------------| 
E||-------------------------------------------------------------| 

G||-----------------------------|| 
D||---------------8--10-10--10--|| 
A||-11--11-11--11---------------|| 
E||-----------------------------|| 


1:44 
G||------------------------------------------------------| 
D||------------------------------------------------------| 
A||--8---8-8--8--8---8-8--8--8---8-8--8------------------| 
E||--------------------------------------6---6-6--6------| 

G||----------------------------------------------------| 
D||------------------------------8---8-8--8--8---8-----| 
A||--8---8-8--8--10---10-10--10--------------------8---| 
E||----------------------------------------------------| 

G||------------------------------------------------------| 
D||------------------------------------------------------| 
A||--8---8-8--8--8---8-8--8--8---8-8--8------------------| 
E||--------------------------------------6---6-6--6------| 

G||----------------------------------------------------------|| 
D||---------------------------------------------8--10-10--10-|| 
A||--8---8-8--8--10---10-10--10--11---11-11--11--------------|| 
E||----------------------------------------------------------|| 

G||------------------------------------------------------| 
D||------------------------------------------------------| 
A||--8---8-8--8--8---8-8--8--8---8-8--8------------------| 
E||--------------------------------------6---6-6--6------| 

G||---------------------------------------------------|| 
D||------------------------------8---8-8---8---8------|| 
A||--8---8-8--8--10---10-10--10-------------------8---|| 
E||---------------------------------------------------|| 

2:31 
G||---------------10/12---7----------------10/12---10---| 
D||------------10-----------------------10--------------| 
A||--8---10-11----------------8---10-11-----------------| 
E||-----------------------------------------------------| 

G||---------------8/10---7---8/10---8-7---7-------------||  (( X7 )) 
D||------------10-----------------------8----8-8/10-10--||  (there a a few minor 
A||--8---10-11------------------------------------------||    variations in this section,  
E||-----------------------------------------------------||      easy to figure out) 


4:20 
G||------------------------------------------------------| 
D||------------------------------------------------------| 
A||--8---8-8--8--8---8-8--8--8---8-8--8------------------| 
E||--------------------------------------6---6-6--6------| 

G||----------------------------------------------------| 
D||------------------------------8---8-8--8--8---8-----| 
A||--8---8-8--8--10---10-10--10--------------------8---| 
E||----------------------------------------------------| 

G||------------------------------------------------------| 
D||------------------------------------------------------| 
A||--8---8-8--8--8---8-8--8--8---8-8--8------------------| 
E||--------------------------------------6---6-6--6------| 

G||----------------------------------------------------------||  (( X3 )) 
D||---------------------------------------------8--10-10--10-|| 
A||--8---8-8--8--10---10-10--10--11---11-11--11--------------|| 
E||----------------------------------------------------------||  


G||-------------------------------------------------|| (a variation played toward 
D||--8---8-8--8--8---8---10---8---8-8--8--8---10----||                     the end. )  
A||--------------------8----8---------------8----8--|| 
E||-------------------------------------------------||  
		  

auto scroll beats size up size down change color hide chords drawings
tab show chords e-chords YouTube Clip e-chords hide all tabs e-chords go to top tab

share