Tamaryn

The Garden

Tamaryn

bass

by  ANDRSOUZA

save to print version add songbook text version e-mail correct tuner
chordsukulelecavacokeyboardtabbassdrumsharmonicaflute Guitar Pro
close

there isn't a video lesson for this song

chords

The Garden

	  		
Intro 0:11 
G|---------| 
D|-12--10--| 
A|---------| 
E|---------| 

Chorus 0:13 
G|---------------------------------------------------| 
D|---------------------------7------9----------------| 
A|------------5--5-5--5-/--8---8-10---10\-5--5-5--5--| x4 
E|-5--5-5--5-----------------------------------------| 

Verse 0:54 
G|----------------------------------------------------------------------------------------| 
D|----7------7------7------7------10------10------10------10------7------7-----7-----7----| 
A|-5----5-5----5-5----5-5----5-8-----8-8-----8-8-----8-8-----8-5----5-5----5-5---5-5---5--| 
E|----------------------------------------------------------------------------------------| 

G|----------------------------------------------------------------------------------------| 
D|----10------10-----10------10------5------5------5------5------5------5-----------------| 
A|-8-----8-8-----8-8----8-8-----8-3----3-3----3-3----3-3----3-3----3-3----3p5-5-5-5-3-3-3-| 
E|----------------------------------------------------------------------------------------| 

Chorus 1:26 
G|---------------------------------------------------| 
D|---------------------------7------9----------------| 
A|------------5--5-5--5-/--8---8-10---10\-5--5-5--5--| x4 
E|-5--5-5--5-----------------------------------------| 

verse 2:08 
G|----------------------------------------------------------------------------------------| 
D|----7------7------7------7------10------10------10------10------7------7-----7-----7----| 
A|-5----5-5----5-5----5-5----5-8-----8-8-----8-8-----8-8-----8-5----5-5----5-5---5-5---5--| 
E|----------------------------------------------------------------------------------------| 

G|----------------------------------------------------------------------------------------| 
D|----10------10-----10------10------5------5------5------5------5------5-----------------| 
A|-8-----8-8-----8-8----8-8-----8-3----3-3----3-3----3-3----3-3----3-3----3h5-5-5-5-3-3-3-| 
E|----------------------------------------------------------------------------------------| 

Break 2:39 (same as Chorus) 
G|---------------------------------------------------| 
D|---------------------------7------9----------------| 
A|------------5--5-5--5-/--8---8-10---10\-5--5-5--5--| x2 
E|-5--5-5--5-----------------------------------------| 

Chorus 3:02 
G|---------------------------------------------------| 
D|---------------------------7------9----------------| 
A|------------5--5-5--5-/--8---8-10---10\-5--5-5--5--| x4 
E|-5--5-5--5-----------------------------------------| 

Outro 3:43 (same as Chorus) 
G|---------------------------------------------------| 
D|---------------------------7------9----------------| 
A|------------5--5-5--5-/--8---8-10---10\-5--5-5--5--| x2   
E|-5--5-5--5-----------------------------------------| 



************************************ 

| /  Slide up 
| \  Slide down 
| p  Pull-off 
| h  Hammer-on 
| ~  Vibrato 

************************************ 
		  

See also:

bass Collective Soul - Where The River Flows bass Pink - There You Go bass Yellowcard - Down on my head bass Thousand Foot Krutch - Rawfist bass Michael Jackson - Billy jean bass Black Eyed Peas - where is the love
e-chords

Other versions:

bass Guns N' Roses - The Garden bass Tamaryn - The Garden
auto scroll beats size up size down change color hide chords drawings
tab show chords e-chords YouTube Clip e-chords hide all tabs e-chords go to top tab

share