Tamaryn

Sugar Fix

Tamaryn

bass

by  JESSGOMES

save to print version add songbook text version e-mail correct tuner
chordsukulelecavacokeyboardtabbassdrumsharmonicaflute Guitar Pro
close

there isn't a video lesson for this song

chords

Sugar Fix

	  		
Intro 0:18 
G|---------------------------------------------------------------------------------------------| 
D|---------------------------------------------------------------------------------------------| 
A|-----------------------------------------------4-4-4-4-4-2-2-2-2-2-7-7-7-7-------------------| x2 
E|-2-2-2-2-2-4-4-4-4-4-4-4-4-4-4-4-4-4-4-4-4-4-4-----------------------------5-5-5-5-5-5-5-5-5-| 

Verse 0:36 
G|-----------------------------------------------------------------------------------------------| 
D|-----------------------------------------------------------------------------------------------| 
A|-----------------------------------------------2h4-4-4-4-4-2-2-2-2-2-7-7-7-7-------------------| x4 
E|-2-2-2-2-2-4-4-4-4-4-4-4-4-4-4-4-4-4-4-4-4-4-4-------------------------------5-5-5-5-5-5-5-5-5-| 


Chorus 1:12 
G|------------------------------------------------------------------------| 
D|------------------------------------------------------------------------| 
A|-----------------------------------------------5h7-7-7-7-7-7h9-9-9-9----| 
E|-4h5-5-5-5-5-4h5-5-5-5-5-5-5-5-5-5-5-4-4-4-4-4--------------------------| 

G|----------------------------------------------------------------| 
D|----------------------------------------------------------------| 
A|----------------------------------------------------------------| 
E|-1h2-2-2-2-2-1h2-2-2-2-2-2-2-2-3h4-4-4-4-4-3h4-4-4-4-4-2-2-0-0--| 

G|-----------------------------------------------------------------------------------| 
D|-----------------------------------------------------------------------------------| 
A|-----------------------------------------------------------------------------------| 
E|-4h5-5-5-5-5-4h5-5-5-5-5-4h5-5-5-5-4-4-4-4-4-4-4-4-3-3-3-3-3-3-3-3-2-2-2-2-2-2-2-2-| 


Post-Chorus 1:31 
G|----------------------------------------------------------------------| 
D|----------------------------------------------------------------------| 
A|-7h9-9-9-9-9-7h9-9-9-9-9-7h9-9-9-9-7h9-9-9-9-9-7h9-9-9-9-9-7h9-9-9-9--| 
E|----------------------------------------------------------------------| 
                                                                           Repeat Post-Chorus Twice            
G|----------------------------------------------------------| 
D|----------------------------------------------------------|                
A|-4-4-4-4-4-4-4-4-4-4/7-7-7-7-7----------------------------| 
E|-------------------------------7-7-7-7-7-7-7-5-5-5-5-5----| 

verse 1:49 
G|-------------------------------------------------------------------------------------------------| 
D|-------------------------------------------------------------------------------------------------| 
A|-----------------------------------------------2h4-4-4-4-4-2-2-2-2-2-7-7-7-7---------------------| x4 
E|-2-2-2-2-2-4-4-4-4-4-4-4-4-4-4-4-4-4-4-4-4-4-4-------------------------------5-5-5-5-5 5-5-5-5-5-| 

Chorus 2:26 
G|------------------------------------------------------------------------| 
D|------------------------------------------------------------------------| 
A|-----------------------------------------------5h7-7-7-7-7-7h9-9-9-9----| 
E|-4h5-5-5-5-5-4h5-5-5-5-5-5-5-5-5-5-5-4-4-4-4-4--------------------------| 

G|----------------------------------------------------------------| 
D|----------------------------------------------------------------| 
A|----------------------------------------------------------------| 
E|-1h2-2-2-2-2-1h2-2-2-2-2-2-2-2-3h4-4-4-4-4-3h4-4-4-4-4-2-2-0-0--| 

G|-----------------------------------------------------------------------------------| 
D|-----------------------------------------------------------------------------------| 
A|-----------------------------------------------------------------------------------| 
E|-4h5-5-5-5-5-4h5-5-5-5-5-4h5-5-5-5-4-4-4-4-4-4-4-4-3-3-3-3-3-3-3-3-2-2-2-2-2-2-2-2-| 

Break 2:44 
G|----------------------------------------------------------------------| 
D|----------------------------------------------------------------------| 
A|-7h9--------4-4-4-4-4-4-4-4-4-7-7-7-7-7-2-2-2-2-2-2-2-2-2-2-----------| x2 
E|------------------------------------------------------------5-5-5-5---| 

Pause 

Chorus 3:20 
G|------------------------------------------------------------------------| 
D|------------------------------------------------------------------------| 
A|-----------------------------------------------5h7-7-7-7-7-7h9-9-9-9----| 
E|-4h5-5-5-5-5-4h5-5-5-5-5-5-5-5-5-5-5-4-4-4-4-4--------------------------| 

G|----------------------------------------------------------------| 
D|----------------------------------------------------------------| 
A|----------------------------------------------------------------| 
E|-1h2-2-2-2-2-1h2-2-2-2-2-2-2-2-3h4-4-4-4-4-3h4-4-4-4-4-2-2-0-0--| 

G|-----------------------------------------------------------------------------------| 
D|-----------------------------------------------------------------------------------| Repeat Chorus Twice 
A|-----------------------------------------------------------------------------------| 
E|-4h5-5-5-5-5-4h5-5-5-5-5-4h5-5-5-5-4-4-4-4-4-4-4-4-3-3-3-3-3-3-3-3-2-2-2-2-2-2-2-2-| 

Outro 3:58 
G|----------------------------------------------------------------------| 
D|----------------------------------------------------------------------| 
A|-7h9-9-9-9-9-7h9-9-9-9-9-7h9-9-9-9-7h9-9-9-9-9-7h9-9-9-9-9-7h9-9-9-9--| 
E|----------------------------------------------------------------------| 
                                                                             
G|----------------------------------------------------------| 
D|----------------------------------------------------------|                
A|-4-4-4-4-4-4-4-4-4-4/7-7-7-7-7----------------------------|    Repeat till fade out 
E|-------------------------------7-7-7-7-7-7-7-5-5-5-5-5----|  
		  

See also:

bass Collective Soul - Where The River Flows bass Pink - There You Go bass Yellowcard - Down on my head bass Thousand Foot Krutch - Rawfist bass Michael Jackson - Billy jean bass Black Eyed Peas - where is the love
e-chords

Other versions:

bass Tamaryn - Sugar Fix
auto scroll beats size up size down change color hide chords drawings
tab show chords e-chords YouTube Clip e-chords hide all tabs e-chords go to top tab

share