Tamaryn

Keep Calling

Tamaryn

bass

by  VSWORLD

save to print version add songbook text version e-mail correct tuner
chordsukulelecavacokeyboardtabbassdrumsharmonicaflute Guitar Pro
close

there isn't a video lesson for this song

chords

Keep Calling

	  		
Intro 0:19 
G|----------------------------------------------------------| 
D|----------------------------------------------------------| 
A|---------3~-----5-7-7~-------5~--------------5-7-7~-------| x3 
E|-5-5~--3----5-7--------0-0~----3-3~--3~--5-7--------0-0~--| 

Chorus 1:12 
G|------------------------------------------------| 
D|---------------------------------5~-5~----------| 
A|-3~-3~-3~--3-3-2/7~-7~-7~--7-7-5-------7~-7-7-5-| 
E|------------------------------------------------| 

G|--------------------------------------------------------------| 
D|--------------------------------------------------------------| 
A|-3~-3~-3~--3-3-2/7~-7~-7~--7-7-5----------7-7-5~--------------| 
E|---------------------------------3~-3~-0~--------3~-3~-3~--2~-| 

verse 1:42 
G|----------------------------------------------------------| 
D|----------------------------------------------------------| 
A|---------3~-----5-7-7~-------5~--------------5-7-7~-------| x2 
E|-5-5~--3----5-7--------0-0~----3-3~--3~--5-7--------0-0~--| 

Chorus 2:17 
G|------------------------------------------------| 
D|---------------------------------5~-5~----------| 
A|-3~-3~-3~--3-3-2/7~-7~-7~--7-7-5-------7~-7-7-5-| 
E|------------------------------------------------| 

G|-----------------------------------| 
D|-----------------------------------| 
A|-3~-3~-3~--3-3-2/7~-7~-7~--7-7-5\--| 
E|-----------------------------------| 

Pause 

verse 2:47 
G|----------------------------------------------------------| 
D|----------------------------------------------------------| 
A|---------3~-----5-7-7~-------5~--------------5-7-7~-------| 
E|-5-5~--3----5-7--------0-0~----3-3~--3~--5-7--------0-0~--| 

Chorus 3:05 
G|------------------------------------------------| 
D|---------------------------------5~-5~----------| 
A|-3~-3~-3~--3-3-2/7~-7~-7~--7-7-5-------7~-7-7-5-| 
E|------------------------------------------------| 

G|-----------------------------------| 
D|-----------------------------------| 
A|-3~-3~-3~--3-3-2/7~-7~-7~--7-7-5\--| 
E|-----------------------------------| 

Pause 

Outro 4:10 
G|------------------------------------------------| 
D|---------------------------------5~-5~----------| 
A|-3~-3~-3~--3-3-2/7~-7~-7~--7-7-5-------7~-7-7-5-| Repeat till end 
E|------------------------------------------------| 


************************************ 

| /   Slide up 
| \   Slide down 
| ~   Vibrato 

************************************ 
		  

See also:

bass Collective Soul - Where The River Flows bass Pink - There You Go bass Yellowcard - Down on my head bass Thousand Foot Krutch - Rawfist bass Michael Jackson - Billy jean bass Black Eyed Peas - where is the love
e-chords

Other versions:

bass Tamaryn - Keep Calling
auto scroll beats size up size down change color hide chords drawings
tab show chords e-chords YouTube Clip e-chords hide all tabs e-chords go to top tab

share