System Of A Down

A.T.W.A (Ver.2)

System Of A Down

bass Beginner beginner

by  MAICON_AM_

save to print version add songbook text version e-mail correct tuner
chordsukulelecavacokeyboardtabbassdrumsharmonicaflute Guitar Pro
close

there isn't a video lesson for this song

chords

A.T.W.A (Ver.2)

	  		Intro: 
F# ---------------------------------------------------- 
C  -5---5-3---3-7---7-8---8-10---10-8---8-7---7-5----5-   play 2x 
G  ---------------------------------------------------- 
C  ---------------------------------------------------- 
 
Verse 1   (Hey you, see me, pictures crazy) 
F# --------------------------------------------------- 
C  -5---5-3---3-7---7-8---8-10---10-8---8-7---7-5---5-   play 2x 
G  --------------------------------------------------- 
C  --------------------------------------------------- 
 
You don't care about how I feel... 
F# ---------------------------------- 
C  ----------------------------------     play 4x along with drums 
G  ---------------------------------- 
C  -55555----------------------55555- 
 
Post-Chorus/ Verse 2   (Hey you, are me, not so pretty...) 
F# --------------------------------------------------- 
C  -5---5-3---3-7---7-8---8-10---10-8---8-7---7-5---5-    play 3x 
G  --------------------------------------------------- 
C  --------------------------------------------------- 
 
You don't care about how I feel... 
F# -------------------------------- 
C  --------------------------------   play 4x 
G  -------------------------------- 
C  -55555--------------------55555- 
 
I don't see, anymore... 
F# ------------------------------------- 
C  -------------------------------------    play 4x 
G  ------------------------------------- 
C  -5-5-5-----3-5---------5-5-5-----3-5- 
 
Bridge/ Verse 3 
F# --------------------------------------------------- 
C  ---------------------------------------------------    play 4x 
G  --------------------------------------------------- 
C  -5---5-3---3-7---7-8---8-10---10-8---8-7---7-5---5- 
 
You don't care about how I feel... 
F# ---------------------------------- 
C  ---------------------------------- 
G  ---------------------------------- 
C  -55555----------------------55555- 
 
I don't sleep, anymore... 
F# ------------------------------------- 
C  ------------------------------------- 
G  ------------------------------------- 
C  -5-5-5-----3-5---------5-5-5-----3-5- 

		  

Full key step upFull key step up
Half key step upHalf key step up
Half key step downHalf key step down
Full key step downFull key step down
hide glossary

See also:

bass System Of A Down - Chop Suey bass System Of A Down - Psycho bass System Of A Down - Question! (Ver.2) bass System Of A Down - Forest bass Linkin Park - On Step Closer bass Linkin Park - My December
e-chords

Other versions:

bass System Of A Down - A.T.W.A (Ver.2) bass System Of A Down - Atwa bass System Of A Down - Atwa (intro) bass System Of A Down - Atwa (ver. 2)
auto scroll beats size up size down change color hide chords drawings
tab show chords e-chords YouTube Clip e-chords hide all tabs e-chords go to top tab

share