Sugar Minott

home > Sugar Minott

Trying To Fool I Bass Tab

Sugar Minott

Difficulty: nolevelnolevel

by Kshaka

tuner correct add songbook print version text version save to e-mail
chordsukulelecavacokeyboardtabbassdrumsharmonicsflute Guitar Pro
chords

Trying To Fool I

  		Main Patterns:  

Riff 1  

G|-------------------------------|   
D|-------------------------------| x2  
A|---9-9--------9-7-9------------|      
E|-------7---7--------7----------|  

Riff 2  

G|-------------------------------|   
D|-------------------------------| x2  
A|---7-7--------7-5-7------------|      
E|-------5---5--------5----------|  

Riff 3 (Play This Entering Verse 1, Also An Alternative Riff)  

G|-------------------------------|   
D|-------------------------------|   
A|-------9------9-7-9------------|      
E|---7-7-----7--------7----------|  

Riff 4  

G|-------------------------------|   
D|------33333-------55555--------| x2  
A|---3-----------5---------------|      
E|-------------------------------| 
	  

Search Paypal
auto scroll beats size up size down change color hide chords drawings
tab show chords e-chords YouTube Clip e-chords hide all tabs e-chords go to top tab