Stuart Hamm

Sexually Active

Stuart Hamm

bass

by  BRUNBLAZKOWSKI

save to print version add songbook text version e-mail correct tuner
chordsukulelecavacokeyboardtabbassdrumsharmonicaflute Guitar Pro
close

there isn't a video lesson for this song

chords

Sexually Active

	  		Main Riff 
         T  T  T  T  T        T  T  T  T  T        T  T  T  T  T        T  T  T  T  T 
G|------------16-------------------16-------------------16-------------------16---------| 
D|----9----14----14----9---9----14----14----9---9----14----14----9---9----14----14----9-| 
A|--7---14----------14---7---14----------14---7---14----------14---7---14----------14---| 
E|--------------------------------------------------------------------------------------| 

         T  T  T  T  T        T  T  T  T  T        T  T  T  T  T        T  T  T  T  T 
G|------------14-------------------14-------------------14-------------------14---------| 
D|----9----12----12----9---9----12----12----9---9----12----12----9---9----12----12----9-| 
A|--7---12----------12---7---12----------12---7---12----------12---7---12----------12---| 
E|--------------------------------------------------------------------------------------| 
		  

See also:

bass Guns N' Roses - Welcome to The Jungle bass Creed - One Last Breath bass The Offspring - Want You Bad bass Aerosmith - I Don't Want To Miss A Thing bass Aerosmith - Crazy bass Aerosmith - Dude Looks Like A Lady
e-chords

Other versions:

bass Stuart Hamm - Sexually Active
auto scroll beats size up size down change color hide chords drawings
tab show chords e-chords YouTube Clip e-chords hide all tabs e-chords go to top tab

share