Street Bulldogs

derfel cadarn

Street Bulldogs

bass

by  DERFEL CADARN

save to print version add songbook text version e-mail correct tuner
chordsukulelecavacokeyboardtabbassdrumsharmonicaflute Guitar Pro
close

there isn't a video lesson for this song

chords

derfel cadarn

	  		base1: 
*=tokar varias vezes 
|-7*-5-------7*-5-----7*-5-------7*-5------------------------------- 
|------7-5*-------5*-------7-5*-------5*-------------------------- 
|------------------------------------------------------- 
|------------------------------------------------------- 
 
base2:2 vezes 
|------------------------------------------------------- 
|------------------------------------------------------- 
|--------5*-5*--------5*-5*------------------------------------ 
|-7*--5*--------7*-5*------------------------------------------- 
 
pre refrao: 
|------------------------------------------------------- 
|------------------------------------------------------- 
|-----5--------5----------5---------5---------------------------- 
|--5*---7-5-3*----7-7--5*---7-5--3*----7-7------------------------------- 
 
|------------------------------------------------------- 
|------------------------------------------------------- 
|------------------------------------------------------- 
|-7-7--------7-7--------7-7--------7-7-------------------------- 
 
refrao:4 vezes 
|------------------------------------------------------- 
|------------------------------------------------------- 
|-------5*------------------------------------------------ 
|-7*-3*----5*------------------------------------------------- 
 
base2: 
prerefrao: 
ponte fika soh na B(si) 
refrao: 
 
quero montar uma banda nesse stilo.....sou baixista e procura uma banda nesse estio ou pessoas q queiram montar 
sou de samo paulo butanta 
msn:[email protected] 

		  

Full key step upFull key step up
Half key step upHalf key step up
Half key step downHalf key step down
Full key step downFull key step down
hide glossary

See also:

bass Cueio Limão - Mário bass CPM 22 - Não Vá Embora bass Nx Zero - Mentiras e fracassos bass Forfun - Hidropônica bass Nx Zero - Cado Ou Tarde bass Gritando HC - Hino do alcool
e-chords

Other versions:

bass Street Bulldogs - derfel cadarn
auto scroll beats size up size down change color hide chords drawings
tab show chords e-chords YouTube Clip e-chords hide all tabs e-chords go to top tab

share