Stick Figure

World On Fire Remix

Stick Figure

bass

by  HUGO_RODRIGUES

save to print version add songbook text version e-mail correct tuner
chordsukulelecavacokeyboardtabbassdrumsharmonicaflute Guitar Pro
close

there isn't a video lesson for this song

chords

World On Fire Remix

	  		
Intro
 
G|---------------------------------------------------------------| 
D|---------------------------------------------------------------|    X8} 
A|-------5-------------5---------------3-------------------------| 
E|-------------7-7-7--------7-7-7--------------------------------| 

G|---------------------------------------------------------------| 
D|---------------------------------------------------------------| 
A|-------5-------------5---------------3---3---------------------| 
E|-------------7-7-7--------7-7-7---------------5---3--0---------| 

2:16 
G|---------------------------------------------------------------| 
D|---------------------------------------------------------------| 
A|-------5-5-5--------5-5-5---------3-3-3------3-3-3-------------| 
E|-7---------------7-------------5-----------5-------------------| 

2:44 
G|-----------------------------------------------------------------| 
D|-----------------------------------------------------------------| 
A|--5--5-----------5--5-------3-3--------3-3-----------------------| 
E|------7--7--7--------7-7-7-----5-5-5--------5-5-5----------------| 

4:32 
G|--------------------------------------------------------------------| 
D|--------------------------------------------------------------------| 
A|----5----------------3------------------5---------------------------| 
E|--------------------------------------------------------------------| 

Outro 
G|---------------------------------------------------------------| 
D|---------------------------------------------------------------| 
A|-------5-5-5--------5-5-5---------3-3-3------3-3-3-------------| 
E|-7---------------7-------------5-----------5-------------------| 

This was my first tab. Shoot me a follow on instagram if you want, Or dm me song ideas. 
		  

See also:

bass Deep Purple - Black Night bass Deep Purple - Smoke On The Water (ver. 3) bass Deep Purple - Highway Star bass Deep Purple - Burn bass Deep Purple - Into The Fire bass Deep Purple - Ted The Mechanic
e-chords

Other versions:

bass Stick Figure - World On Fire Remix
auto scroll beats size up size down change color hide chords drawings
tab show chords e-chords YouTube Clip e-chords hide all tabs e-chords go to top tab

share