Steel Pulse

home > Steel Pulse

Taxi driver Bass Tab

Steel Pulse

Difficulty: nolevelnolevel

by xandao%5Farp

tuner correct add songbook print version text version save to e-mail
chordsukulelecavacokeyboardtabbassdrumsharmonicsflute Guitar Pro
chords

Taxi driver

  		Intro: 
G----------------------| 
D------3---------------| 
A-6--6-----3-----------| 
E--------------5---4---| 

Verse/Chorus: 
G----------------------------------------------------------| 
D---------------------------------------------------------*| 
A-----3--4---4--4-3--4-6------------3--4--4-3--4----------*| 
E-4------------------------4-4--4------------------4---4---| 

Interlude 1  
G---|---------|-------------------10----------------------| 
D---|-(Tacet)-|-13--13-13--13-13-----13--11-10------------| 
A---|---------|--------------------------------13--11-----| 
E-4-|---------|-------------------------------------------| 

volta para o  verse/Chorus pattern. 

Verse change:                                ^ 
G--------------------------------------------------| 
D-6---6-3--------------3---6-6--6-3---------------*| 
A----------6--4---4--6---------------6--4----4----*| 
E--------------------------------------------------| 

2nd Interlude/Bridge thing: 
  ^  ^  ^ |--Improvise--|^  ^  ^ |--Improvise--| 
G------------------------------------------------| 
D----------------6----------------6-3-----------*| 
A----------4-6-------6------------------6---4---*| 
E-4--4--4----------------4--4--4-----------------| 

a gora volta para o Verse/Chorus Riff, e enproviza alguma coisa dentro dele ficara bm 


Outro/Ending 
G------------------------------------------| 
D------------------------------------------| 
A------------------------------8\----------| 
E-4-------4-------4-------4-------8\-4-----| 




***xandao_arp*** 


	  

Search Paypal
auto scroll beats size up size down change color hide chords drawings
tab show chords e-chords YouTube Clip e-chords hide all tabs e-chords go to top tab