Sound City Players

home > Sound City Players

Mantra Bass Tab

Sound City Players

Difficulty: ExpertExpert

by tercmoraes

tuner correct add songbook print version text version save to e-mail
chordsukulelecavacokeyboardtabbassdrumsharmonicsflute Guitar Pro
chords

Mantra

  		

4 bars in (0:11) 

G|--------------------------------|--------------------------------| 
D|--------------------------------|--------------------------------| 
A|--------------------------------|--------------------------------| x8 
E|--12\---------------------------|--------------------------------| 


(0:41) 

G|--------------------------------|--------------------------------| 
D|-----------12/14---------14\12--|--------------------------------| 
A|--------------------------------|--------------------------------| 
E|--12----------------------------|--12\---------------------------| 

G|--------------------------------|--------------------------------| 
D|-----------12/14---------14\12--|--------------------------------| 
A|--14----------------------------|--14\---------------------------| 
E|--------------------------------|--------------------------------| 

G|--------------------------------|--------------------------------| 
D|-----------14/12---------12-----|--------------------------------| 
A|--15----------------------------|--15\---------------------------| 
E|--------------------------------|--------------------------------| 

G|--------------------------------|--------------------------------| 
D|-----------12/14---------14\12--|--------------------------------| 
A|--15----------------------------|--15\---------------------------| 
E|--------------------------------|--------------------------------| 


(0:58) 

G|--------------------------------|--------------------------------| 
D|-----------12/14---------14\12--|--------------------------------| 
A|--------------------------------|--------------------------------| 
E|--12----------------------------|--12\---------------------------| 

G|--------------------------------|--------------------------------| 
D|-----------12/14---------14-----|--------------------------------| 
A|--14----------------------------|--14\---------------------------| 
E|--------------------------------|--------------------------------| 

G|--------------------------------|--------------------------------| 
D|-----------14/12---------12-----|--------------------------------| 
A|--15----------------------------|--15\---------------------------| 
E|--------------------------------|--------------------------------| 

G|--------------------------------|--------------------------------| 
D|-----------12/14---------14-----|---------------------------14---| 
A|--15----------------------------|--15\-------------12h14---------| 
E|--------------------------------|--------------------------------| 


(1:16) 

G|--------------------------------|--------------------------------| 
D|-----------12/14---------14-----|--------------------------------| 
A|--------------------------------|--------------------------------| 
E|--12----------------------------|--12\---------------------------| 

G|--------------------------------|--------------------------------| 
D|-----------12/14---------14-----|--------------------------------| 
A|--14----------------------------|--14\---------------------------| 
E|--------------------------------|--------------------------------| 

G|--------------------------------|--------------------------------| 
D|-----------14/12---------12-----|--------------------------------| 
A|--15----------------------------|--15\---------------------------| 
E|--------------------------------|--------------------------------| 

G|--------------------------------|--------------------------------| 
D|-----------12/14---------14-----|---------------------------14---| 
A|--15----------------------------|--15\-------------12h14---------| 
E|--------------------------------|--------------------------------| 


(1:30) 

G|--------------------------------|--------------------------------| 
D|-------------------------12-----|--------------------------------| 
A|--------------------------------|--------------------------------| 
E|--12------12--------------------|--12\---------------------------| 

G|--------------------------------|--------------------------------| 
D|-----------12/14---------14-----|--------------------------------| 
A|--14----------------------------|--14\---------------------------| 
E|--------------------------------|--------------------------------| 

G|--------------------------------|--------------------------------| 
D|-----------14/12---------12-----|--------------------------------| 
A|--15----------------------------|--15\---------------------------| 
E|--------------------------------|--------------------------------| 

G|--------------------------------|--------------------------------| 
D|-----------12/14---------14-----|------------------14-------14---| 
A|--15----------------------------|--15\-----------------14--------| 
E|--------------------------------|--------------------------------| 


(1:44) 

G|--------------------------------|--------------------------------| 
D|-----------12/14---------14-----|--------------------------------| 
A|--------------------------------|--------------------------------| 
E|--12----------------------------|--12\---------------------------| 

G|--------------------------------|--------------------------------| 
D|-----------12/14---------14-----|--------------------------------| 
A|--14----------------------------|--14\-------------------12--14--| 
E|--------------------------------|--------------------------------| 

G|--------------------------------|--------------------------------| 
D|-----------14/12---------12-----|--------------------------------| 
A|--15----------------------------|--15\---------------------------| 
E|--------------------------------|--------------------------------| 

G|--------------------------------|--------------------------------| 
D|-----------12/14---------14-----|---------------------------14---| 
A|--15----------------------------|--15\-----------------12h14-----| 
E|--------------------------------|--------------------------------| 


(1:59) 

G|--------------------------------|--------------------------------| 
D|-----------12/14---------14-----|--------------------------------| 
A|--------------------------------|--------------------------------| 
E|--12----------------------------|--12\---------------------------| 

G|--------------------------------|--------------------------------| 
D|-----------12/14---------14-----|--------------------------------| 
A|--14----------------------------|--14\-------------------12--14--| 
E|--------------------------------|--------------------------------| 

G|--------------------------------|--------------------------------| 
D|-----------14/12---------12-----|--------------------------------| 
A|--15----------------------------|--15\---------------------------| 
E|--------------------------------|--------------------------------| 

G|--------------------------------|--------------------------------| 
D|-----------12/14---------14-----|---------------------------14---| 
A|--15----------------------------|--15\-------------12h14---------| 
E|--------------------------------|--------------------------------| 


(2:15) 

G|--------------------------------|--------------------------------| 
D|--------------------------------|--------------------------------| 
A|--------------------------------|--------------------------------| 
E|--12--12--------12--------------|--12--12--------12--------------| 

G|--------------------------------|--------------------------------| 
D|--------------------------------|--------------------------------| 
A|--14--14--------14--------------|--14--14--------14------12--14--| 
E|--------------------------------|--------------------------------| 

G|--------------------------------|--------------------------------| 
D|--------------------------------|----------------------------12--| 
A|--15--15--------15--------------|--15--15--------15------15------| 
E|--------------------------------|--------------------------------| 

G|--------------------------------|--------------------------------| 
D|--------------------------------|-----------------------------14-| 
A|--12--12--------12--------------|--12--12--------12------12h14---| 
E|--------------------------------|--------------------------------| 


(2:30) 

G|--------------------------------|--------------------------------| 
D|---------------------12/14--\12-|---------------------------14---| 
A|--------------------------------|----------------------12h14-----| 
E|--12--12--------12--------------|--12--12--------12--------------| 

G|--------------------------------|--------------------------------| 
D|---------------------12/14-12---|--------------------------------| 
A|--14--14--------14-----------14-|--14--14--------14--14--12--14--| 
E|--------------------------------|--------------------------------| 

G|--------------------------------|--------------------------------| 
D|---------------------12/14-12---|-----------------------------12-| 
A|--15--15--------15-----------14-|--15--15--------15-----15-15----| 
E|--------------------------------|--------------------------------| 

G|--------------------------------|--------------------------------| 
D|--------------------------12-14-|-----------------------------14-| 
A|--12--12--------12----12--------|--12--12--------12------12h14---| 
E|--------------------------------|--------------------------------| 


(2:46) 

G|--------------------------------|--------------------------------| 
D|--------------------------------|--------------------12/14\12----| 
A|--------------------------------|-----------------------------14-| 
E|--12--12--------12--------------|--12--12--------12--------------| 

G|--------------------------------|--------------------------------| 
D|---------------------12/14\12---|--------------------------------| 
A|--14--14--------14-----------14-|--14--14--------14--14--12--14--| 
E|--------------------------------|--------------------------------| 

G|--------------------------------|--------------------------12----| 
D|------------------------14\12---|---------------------12h14---14-| 
A|--15--15--------15--------------|--15--15--------15--------------| 
E|--------------------------------|--------------------------------| 

G|--------------------------------|--------------------------------| 
D|----------------------14\12-----|--------------------------12----| 
A|--12--12--------12-----------12-|--12--12--------12---12h14---14-| 
E|--------------------------------|--------------------------------| 


(3:01) 

G|--------------------------------|--------------------------------| 
D|--------------------12/14\12----|--------------------12/14\12----| 
A|-----------------------------14-|-----------------------------14-| 
E|--12--12--------12--------------|--12--12--------12--------------| 

G|--------------------------------|-----------------------------12-| 
D|----------------------------12--|----------------------12h14-----| 
A|--14--14--------14---12h14------|--14--14--------14--------------| 
E|--------------------------------|--------------------------------| 

G|--------------------------------|--------------------------------| 
D|----------------------14-14-12--|---------------------12/14-12---| 
A|--15--15--------15--------------|--15--15--------15--------------| 
E|--------------------------------|--------------------------------| 

G|--------------------------------|--------------------------------| 
D|---------------------12/14-12---|--------------------------12----| 
A|--12--12--------12--------------|--12--12--------12---12h14---14-| 
E|--------------------------------|--------------------------------| 


(3:17) 

G|--------------------------------|--------------------------------| 
D|--------------------12//14\12---|--------------------12/14\12-14-| 
A|--------------------------------|--------------------------------| 
E|--12--12--------12--------------|--12--12--------12--------------| 

G|--------------------------------|--------------------------------| 
D|--------------------12/14\12----|--------------------------------| 
A|--14--14--------14--------------|--14--14--------14--14--12--14--| 
E|--------------------------------|--------------------------------| 

G|--------------------------------|--------------------------------| 
D|----------------------12/14-12--|---------------------12/14-12---| 
A|--15--15--------15--------------|--15--15--------15--------------| 
E|--------------------------------|--------------------------------| 

G|--------------------------------|---------------------------12---| 
D|--------------------------------|---------------------12h14---14-| 
A|--12--12--------12---12h14-12---|--12--12--------12--------------| 
E|--------------------------------|--------------------------------| 


(3:32) 

G|--------------------------------|--------------------------------| 
D|--------------------12h14-12-14-|----------------------------14--| 
A|--------------------------------|--------------------------------| 
E|--12--12--------12--------------|--12--12--------12-----12-------| 

G|--------------------------------|--------------------------------| 
D|--------------------12/14-12-14-|--------------------------------| 
A|--14--14--------14--------------|--14--14--------14--14--12--14--| 
E|--------------------------------|--------------------------------| 

G|-------------------------12-----|--------------------------------| 
D|--------------------12h14--14-12|---------------------12-14-12---| 
A|--15--15--------15--------------|--15--15--------15--------------| 
E|--------------------------------|--------------------------------| 

G|--------------------------------|--------------------------------| 
D|---------------------12-14-12---|---------------------12-14-12---| 
A|--12--12--------12--------------|--12--12--------12--------------| 
E|--------------------------------|--------------------------------| 


(3:47) 

G|--------------------------------|--------------------------------| 
D|--------------------------------|--------------------------------| 
A|--------------------------------|--------------------------------| 
E|--10--12----10-11-12-----0------|--10--12----10-11-12----0-------| 

G|--------------------------------|--------------------------------| 
D|--------------------------------|--------------------------------| 
A|--------------------------------|------------------------12------| 
E|--10--12----10-11-12-----0------|--10--12-----10-11-12-----12-11-| 

G|--------------------------------|--------------------------------| 
D|--------------------------------|--------------------------------| 
A|--------------------------------|--------------------------------| 
E|--10--12----10-11-12-----0------|--10--12-----10-11-12---0-------| 

G|--------------------------------|--------------------------------| 
D|--------------------------------|--------------------------------| 
A|--12--10----10-11-12-----0------|--10--12----10-11-12--10-11-12--| 
E|--------------------------------|--------------------------------| 


(4:02) 

G|--------------------------------|--------------------------------| 
D|--------------------------------|--------------------------------| 
A|--------------------------------|--------------------------------| 
E|--10--12----10-11-12-----0------|--10--12----10-11-12----0-------| 

G|--------------------------------|--------------------------------| 
D|--------------------------------|--------------------------------| 
A|--------------------------------|---------------10---------------| 
E|--10--12----10-11-12-----0------|--10--12--10-12---10-11-12-10-11| 

G|--------------------------------|--------------------------------| 
D|--------------------------------|--------------------------------| 
A|--------------------------------|--------------------------------| 
E|--10--12----10-11-12-----0------|--10--12-----10-11-12---0-------| 

G|--------------------------------|--------------------------------| 
D|--------------------------------|------------------10------------| 
A|--10--12----10-11-12-----0------|--10--12----10-12-----12-10-12--| 
E|--------------------------------|--------------------------------| 


(4:18) 

G|--------------------------------|--------------------------------| 
D|--------------------------------|--------------------------------| 
A|--------------------------------|--------------------------------| 
E|--10--12----10-11-12-----0------|--10--12----10-11-12----0-------| 

G|--------------------------------|--------------------------------| 
D|--------------------------------|--------------------------------| 
A|--------------------------------|------------------12---10-------| 
E|--10--12----10-11-12-----0------|--10--12----10-12---------12-10-| 

G|--------------------------------|--------------------------------| 
D|--------------------------------|--------------------------------| 
A|--------------------------------|--------------------------------| 
E|--10--12----10-11-12-----0------|--10--12----10-11-12----0-------| 

G|--------------------------------|--------------------------------| 
D|--------------------------------|--------------------------------| 
A|--10--12----10-11-12-----0------|--10--12----10-11-12----0-------| 
E|--------------------------------|--------------------------------| 


(4:33) 

G|--------------------------------|--------------------------------| 
D|--------------------------------|--------------------------------| 
A|--------------------------------|--------------------------------| 
E|--10--12----10-11-12-----0------|--10--12----10-11-12----0-------| 

G|--------------------------------|--------------------------------| 
D|--------------------------------|--------------------------------| 
A|--------------------------------|-------------------------10-----| 
E|--10--12----10-11-12-----0------|--10--12---10-11-12-10-12--12-10| 

G|--------------------------------|--------------------------------| 
D|--------------------------------|--------------------------------| 
A|--------------------------------|--------------------------------| 
E|--10--12----10-11-12-----0------|--10--12----10-11-12----0-------| 

G|--------------------------------|--------------------------------| 
D|--------------------------------|--------------------------------| 
A|--10--12----10-11-12-----0------|--10--12----10-11-12----0-------| 
E|--------------------------------|--------------------------------| 


(4:47) 

G|--------------------------------|--------------------------------| 
D|--------------------------------|--------------------------------| Repeat 8x (until 5:19) 
A|--------------------------------|--------------------------------| 
E|--10--12----10-11-12-----0------|--10--12----10-11-12----0-------| 

(5:03) 

(5:19) 

G|--------------------------------|--------------------------------| 
D|--------------------------------|--------------------------------| 
A|--------------------------------|--------------------------------| 
E|--10--12----10-11-12-----0------|--10--12----10-11-12----0-------| 

G|--------------------------------|--------------------------------| 
D|--------------------------------|--------------------------------| 
A|--------------------------------|--------------------------------| 
E|--10--12----10-11-12-----0------|--10--12----10-11-12--10-11-12--| 

G|--------------------------------|--------------------------------| 
D|--------------------------------|--------------------------------| 
A|--------------------------------|--------------------------------| 
E|--10--12----10-11-12-----0------|--10--12----10-11-12----0-------| 

G|--------------------------------|--------------------------------| 
D|--------------------------------|--------------------------------| 
A|--------------------------------|--------------------------------| 
E|--10--12----10-11-12-----0------|--10--12----10-11-12----0-------| 


(5:35) 

G|--------------------------------|--------------------------------| 
D|--------------------------------|--------------------------------| 
A|--------------------------------|--------------------------------| 
E|--10--12----10-11-12-----0------|--10--12----10-11-12----0-------| 

G|--------------------------------|--------------------------------| 
D|--------------------------------|--------------------------------| 
A|--------------------------------|--------------------------------| 
E|--10--12----10-11-12-----0------|--10--12----10-11-12--10-11-12--| 

G|--------------------------------|--------------------------------| 
D|--------------------------------|--------------------------------| 
A|--------------------------------|--------------------------------| 
E|--10--12----10-11-12-----0------|--10--12----10-11-12----0-------| 

G|--------------------------------|--------------------------------| 
D|--------------------------------|--------------------------------| 
A|--------------------------------|----------------10--------------| 
E|--10--12----10-11-12-----0------|--10--12---10-12--12-10-12-10-11| 


(5:52) 

G|--------------------------------|--------------------------------| 
D|--------------------------------|--------------------------------| 
A|--------------------------------|--------------------------------| 
E|--10--12----10-11-12-----0------|--10--12----10-11-12----0-------| 

G|--------------------------------|---------------------------------------| 
D|--------------------------------|---------------------------12-10-------| (Struggling to 
A|--------------------------------|---------------------10-12-------12-10-| fit it all in!) 
E|--10--12----10-11-12-----0------|--10--12----10-11-12-------------------| 

G|--------------------------------|--------------------------------| 
D|--------------------------------|--------------------------------| 
A|--------------------------------|--------------------------------| 
E|--10--12----10-11-12-----0------|--10--12----10-11-12----0-------| 

G|--------------------------------|--------------------------------| 
D|--------------------------------|--------------------------------| 
A|--------------------------------|--------------------------------| 
E|--10--12----10-11-12-----0------|--10--12----10-11-12--10-11-12--| 


(6:08) 

G|--------------------------------|--------------------------------| 
D|--------------------------------|--------------------------------| 
A|--------------------------------|--------------------------------| 
E|--10--12----10-11-12-----12\----|--10--12----10-11-12----15\-----| 

G|--------------------------------|--------------------------------------| 
D|--------------------------------|--------------------------------------| 
A|--------------------------------|------------------10-----10-12--12/14-| 
E|--10--12----10-11-12-----13\----|--10--12----10-12-----12--------------| 

G|--------------------------------|--------------------------------| 
D|--------------------------------|--------------------------------| 
A|--------------------------------|--------------------------------| 
E|--10--12----10-11-12-----12\----|--10--12----10-11-12----12\-----| 

G|--------------------------------|--------------------------------------| 
D|--------------------------------|--------------------------------12/14-| 
A|--------------------------------|----------------------10-12-14--------| 
E|--10--12----10-11-12-----12\----|--10--12----10-11-12------------------| 


(6:22) 

G|--------------------------------|--------------------------------| 
D|--------------------------------|--------------------------------| 
A|--------------------------------|--------------------------------| 
E|--10--12----10-11-12-----12\----|--10--12----10-11-12----12\-----| 


G|--------------------------------|--------------------------------| 
D|--------------------------------|--------------------------------| 
A|--------------------------------|--------------------------------| 
E|--10--12----10-11-12-----12\----|--10--12----10-11-12--10-11-12--| 

G|--------------------------------|--------------------------------| 
D|--------------------------------|--------------------------------| 
A|--------------------------------|--------------------------------| 
E|--12--------10-11-12-----12\----|--12--------10-11-12----12\-----| 

G|--------------------------------|--------------------------------------| 
D|--------------------------------|--------------------------------14\---| 
A|--------------------------------|----------------------10-12-14--------| 
E|--12--------10-11-12-----12\----|--10--12----10-11-12------------------| 


(6:38) 

G|--------------------------------|--------------------------------| 
D|--------------------------------|--------------------------------| 
A|--------------------------------|--------------------------------| 
E|--10--12----10-11-12-----0------|--10--12----10-11-12----0-------| 

G|--------------------------------|--------------------------------| 
D|--------------------------------|--------------------------------| 
A|--------------------------------|--------------------------------| 
E|--10--12----10-11-12-----0------|--10--12----10-11-12---15\12----| 

G|--------------------------------|--------------------------------| 
D|--------------------------------|--------------------------------| 
A|--------------------------------|--------------------------------| 
E|--10--12----10-11-12-----0------|--10--12----10-11-12----0-------| 

G|--------------------------------|--------------------------------| 
D|--------------------------------|--------------------------------| 
A|--------------------------------|--------------------------------| 
E|--10--12----10-11-12-----0------|--10--12----10-11-12---15\12----| 


(6:54) 

G|--------------------------------|--------------------------------| 
D|--------------------------------|--------------------------------| 
A|--------------------------------|--------------------------------| 
E|--10--12----10-11-12-----0------|--10--12----10-11-12----0-------| 

G|--------------------------------|------------------------------------| 
D|--------------------------------|------------------------------------| 
A|--------------------------------|---------------------10/12-14-12\10-| 
E|--10--12----10-11-12-----0------|--10--12----10-11-12----------------| 

G|--------------------------------|--------------------------------| 
D|--------------------------------|--------------------------------| 
A|--------------------------------|--------------------------------| 
E|--10--12----10-11-12-----0------|--10--12----10-11-12----0-------| 

G|--------------------------------|--------------------------------| 
D|--------------------------------|--------------------------------| 
A|--------------------------------|------------------10--------10--| 
E|--10--12----10-11-12-----0------|--10--12----10-12-----10-12-----| 


(7:16) 

G|--------------------------------|--------------------------------| 
D|--------------------------------|--------------------------------| 
A|--------------------------------|--------------------------------| 
E|--10--12----10-11-12-----12\----|--10--12----10-11-12----12\-----| 


G|--------------------------------|--------------------------------| 
D|--------------------------------|------------------12------------| 
A|--------------------------------|----------------------12-10-12\-| 
E|--10--12----10-11-12-----12\----|--10--12----10-12---------------| 

G|--------------------------------|--------------------------------| 
D|--------------------------------|--------------------------------| 
A|--------------------------------|--------------------------------| 
E|--10--12----10-11-12-----0------|--10--12----10-11-12----0-------| 

G|--------------------------------|--------------------------------| 
D|--------------------------------|--------------------------------| 
A|--------------------------------|--------------------------------| 
E|--10--12----10-11-12--10-11-12--|--10-11-12--10-11-12--10-11-12--| 
	  

Search Paypal
auto scroll beats size up size down change color hide chords drawings
tab show chords e-chords YouTube Clip e-chords hide all tabs e-chords go to top tab