Soldat Louis

Du Rhum Des Femmes

Soldat Louis

bass

by  AMAN_CLAUDINO

save to print version add songbook text version e-mail correct tuner
chordsukulelecavacokeyboardtabbassdrumsharmonicaflute Guitar Pro
close

there isn't a video lesson for this song

chords

Du Rhum Des Femmes

	  		Chorus 

Bass enters at 0:04 
G|---------------|--------------|---------------|--------------|------------| 
D|---------------|--------------|---------------|--------------|------------| 
A|--------2-3----|-2-3-----3--5-|--------2-3----|-2-3-----5----|-5--3--2----| 
E|-3-3-3-------3-|------3-------|-3-3-3-------3-|------3-----3-|----------3-| 


Verse 

"Hello cap'tain..."  
G|---------------|--------------|---------------|--------------| 
D|---------------|--------------|---------------|--------------| 
A|--------2-3----|-2-3-----3--5-|--------2-3----|-2-3-----5----| 
E|-3-3-3-------3-|------3-------|-3-3-3-------3-|------3-----3-| 


Chorus 

"Du rhum, des femmes " 
G|---------------|--------------|---------------|--------------|------------| 
D|---------------|--------------|---------------|--------------|------------| 
A|--------2-3----|-2-3-----3--5-|--------2-3----|-2-3-----5----|-5--3--2----| 
E|-3-3-3-------3-|------3-------|-3-3-3-------3-|------3-----3-|----------3-| 


Verse 

"Ça fait une paye... " 
G|---------------|--------------|---------------|--------------| 
D|---------------|--------------|---------------|--------------| 
A|--------2-3----|-2-3-----3--5-|--------2-3----|-2-3-----5----| 
E|-3-3-3-------3-|------3-------|-3-3-3-------3-|------3-----3-| 


Chorus 

1:10 
G|---------------|--------------|---------------|--------------|------------| 
D|---------------|--------------|---------------|--------------|------------| 
A|--------2-3----|-2-3-----3--5-|--------2-3----|-2-3-----5----|-5--3--2----| 
E|-3-3-3-------3-|------3-------|-3-3-3-------3-|------3-----3-|----------3-| 


Verse 

"Tout est gravé... " 
G|---------------|--------------|---------------|--------------| 
D|---------------|--------------|---------------|--------------| 
A|--------2-3----|-2-3-----3--5-|--------2-3----|-2-3-----5----| 
E|-3-3-3-------3-|------3-------|-3-3-3-------3-|------3-----3-| 


Chorus 

1:43 
G|---------------|--------------|---------------|--------------|------------| 
D|---------------|--------------|---------------|--------------|------------| 
A|--------2-3----|-2-3-----3--5-|--------2-3----|-2-3-----5----|-5--3--2----| 
E|-3-3-3-------3-|------3-------|-3-3-3-------3-|------3-----3-|----------3-| 


Verse 

"Trois milles du cap..." 
G|---------------|--------------|---------------|--------------| 
D|---------------|--------------|---------------|--------------| 
A|--------2-3----|-2-3-----3--5-|--------2-3----|-2-3-----5----| 
E|-3-3-3-------3-|------3-------|-3-3-3-------3-|------3-----3-| 


Chorus 

2:16 
G|---------------|--------------|---------------|--------------|------------| 
D|---------------|--------------|---------------|--------------|------------| 
A|--------2-3----|-2-3-----3--5-|--------2-3----|-2-3-----5----|-5--3--2----| 
E|-3-3-3-------3-|------3-------|-3-3-3-------3-|------3-----3-|----------3-| 

G|---------------|--------------|---------------|--------------|------------| 
D|---------------|--------------|---------------|--------------|------------| 
A|--------2-3----|-2-3-----3--5-|--------2-3----|-2-3-----5----|-5--3--2----| 
E|-3-3-3-------3-|------3-------|-3-3-3-------3-|------3-----3-|----------3-| 
		  

auto scroll beats size up size down change color hide chords drawings
tab show chords e-chords YouTube Clip e-chords hide all tabs e-chords go to top tab

share