Snow Patrol

I'll Never Let Go

Snow Patrol

bass

by  ABELAMIN

save to print version add songbook text version e-mail correct tuner
chordsukulelecavacokeyboardtabbassdrumsharmonicaflute Guitar Pro
close

there isn't a video lesson for this song

chords

I'll Never Let Go

	  		
Intro 0:00-0:57 
 

Verse 1 0:57-1:49 
G|----------------|----------------|----------------|----------------| 
D|----------------|----------------|----------------|----------------| 
A|----------------|----------------|----------------|----------------| 
E|--5-------------|--0-------------|/-7-------------|----------------| 
x2 

G|----------------|----------------|----------------|----------------| 
D|----------------|----------------|----------------|----------------| 
A|----------------|----------------|----------------|----------------| 
E|5---7-----------|5---7-----------|5---7-----------|5---7-----------| 
x4 

1:49-2:05 
G|----------------|----------------|----------------|----------------| 
D|----------------|----------------|----------------|----------------| 
A|----------------|----------------|----------------|----------------| 
E|--5-------------|--0-------------|/-7-------------|----------------| 
x2 

Chorus 2:05-2:23 
G|----------------|----------------|----------------|----------------| 
D|----------------|----------------|----------------|----------------| 
A|----------------|----------------|----------------|----------------| 
E|3-3-3-3-3-3-3-3-|0-0-0-0-0-0-0-0-|7-7-7-7-7-7-7-7-|5-5-5-5-5-5-5-5-| 
x2 

Verse 2 2:23-2:57 
G|----------------|----------------|----------------|----------------| 
D|----------------|----------------|----------------|----------------| 
A|----------------|----------------|----------------|----------------| 
E|7~--------------|----------------|----------------|----------------| 
x2 

Pre-Chorus 2:57-3:31 
G|----------------|----------------|----------------|----------------| 
D|----------------|----------------|----------------|----------------| 
A|----------------|----------------|----------------|----------------| 
E|5---7-----------|5---7-----------|5---7-----------|5---7-----------| 
x2 

G|----------------|----------------|----------------|----------------| 
D|----------------|----------------|----------------|----------------| 
A|----------------|----------------|----------------|----------------| 
E|--5-------------|--0-------------|--7-------------|----------------| 
x3 

G|----------------|----------------|----------------|----------------| 
D|----------------|----------------|----------------|----------------| 
A|----------------|----------------|----------------|----------------| 
E|--5-------------|--0-------------|--7-------------|0-0-0/7-7-7-5-5-| 

Chorus 3:31-4:07 
G|----------------|----------------|----------------|----------------| 
D|----------------|----------------|----------------|----------------| 
A|----------------|----------------|----------------|----------------| 
E|3-3-3-3-3-3-3-3-|0-0-0-0-0-0-0-0-|7-7-7-7-7-7-7-7-|5-5-5-5-5-5-5-5-| 

G|----------------|----------------|----------------|----------------| 
D|----------------|----------------|----------------|----------------| 
A|----------------|----------------|--------------5-|----------------| 
E|3-3-3-3-3-3-3-3-|0-0-0-0-0-0-0-0-|7-7-7-7-7-5-7---|5-5-5-5-5-5-5-5-| 

G|----------------|----------------|----------------|----------------| 
D|----------------|----------------|----------------|----------------| 
A|----------------|--------7-5-----|--------------5-|----------------| 
E|3-3-3-3-3-3-7-5-|0-0-0-0-----7-5-|7-7-7-7-7-5-7---|5-5-5-5-5-5-5-5-| 
x2 

Outro 4:07-4:42 
 
		  

auto scroll beats size up size down change color hide chords drawings
tab show chords e-chords YouTube Clip e-chords hide all tabs e-chords go to top tab

share