Smash Mouth

Trip

Smash Mouth

bass

by  EDUCASTILHO

save to print version add songbook text version e-mail correct tuner
chordsukulelecavacokeyboardtabbassdrumsharmonicaflute Guitar Pro
close

there isn't a video lesson for this song

chords

Trip

	  		
Intro 

Gb|---------------------------------|---------------------------------| 
Db|---------------------------------|-----------------0---0-0-2-0-----| 
Ab|-0h2-2-2-0h2-2-2-0h2-2-2---2-2---|-0---0-0---0-0-0-------------2-0-| 
Eb|-------------------------------0-|---------------------------------| 
    1 e & a 2 e & a 3 e & a 4 e & a   1 e & a 2 e & a 3 e & a 4 e & a 

verse 1 

   "Making faces..." 
Gb|---------------------------------|---------------------------------| 
Db|---------------------------------|-----------------0---0-0-2-0-----| 
Ab|-0h2-2-2-0h2-2-2-0h2-2-2---2-2---|-0---0-0---0-0-0-------------2-0-| 
Eb|-------------------------------0-|---------------------------------| 
    1 e & a 2 e & a 3 e & a 4 e & a   1 e & a 2 e & a 3 e & a 4 e & a 

Gb|---------------------------------|---------------------------------| 
Db|---------------------------------|-----------------0---0-0-2-0-----| 
Ab|-0h2-2-2-0h2-2-2-0h2-2-2---2-2---|-0---0-0---0-0-0-------------2-0-| 
Eb|-------------------------------0-|---------------------------------| 
    1 e & a 2 e & a 3 e & a 4 e & a   1 e & a 2 e & a 3 e & a 4 e & a 

Instrumental 

Gb|---------------------------------|---------------------------------| 
Db|---------------------------------|-----------------0---0-0-2-0-----| 
Ab|-0h2-2-2-0h2-2-2-0h2-2-2---2-2---|-0---0-0---0-0-0-------------2-0-| 
Eb|-------------------------------0-|---------------------------------| 
    1 e & a 2 e & a 3 e & a 4 e & a   1 e & a 2 e & a 3 e & a 4 e & a 

verse 1 

           "Shake myself..." 
Gb|---------------------------------|---------------------------------| 
Db|---------------------------------|-----------------0---0-0-2-0-----| 
Ab|-0h2-2-2-0h2-2-2-0h2-2-2---2-2---|-0---0-0---0-0-0-------------2-0-| 
Eb|-------------------------------0-|---------------------------------| 
    1 e & a 2 e & a 3 e & a 4 e & a   1 e & a 2 e & a 3 e & a 4 e & a 

Gb|---------------------------------|---------------------------------| 
Db|---------------------------------|-----------------0---0-0-2-0-----| 
Ab|-0h2-2-2-0h2-2-2-0h2-2-2---2-2---|-0---0-0---0-0-0-------------2-0-| 
Eb|-------------------------------0-|---------------------------------| 
    1 e & a 2 e & a 3 e & a 4 e & a   1 e & a 2 e & a 3 e & a 4 e & a 

Gb|---------------------------------|---------------------------------| 
Db|---------------------------------|-----------------0---0-0-2-0-----| 
Ab|-0h2-2-2-0h2-2-2-0h2-2-2---2-2---|-0---0-0---0-0-0-------------2-0-| 
Eb|-------------------------------0-|---------------------------------| 
    1 e & a 2 e & a 3 e & a 4 e & a   1 e & a 2 e & a 3 e & a 4 e & a 

Gb|---------------------------------|---------------------------------| 
Db|---------------------------------|-----------------0---0-0-2-0-----| 
Ab|-0h2-2-2-0h2-2-2-0h2-2-2---2-2---|-0---0-0---0-0-0-------------2-0-| 
Eb|-------------------------------0-|---------------------------------| 
    1 e & a 2 e & a 3 e & a 4 e & a   1 e & a 2 e & a 3 e & a 4 e & a 

Pre-Chorus 

   "hell is going on..." 
Gb|---------------------------------|---------------------------------| 
Db|----------------------2-----2-2--|---------------------2-----2-2---| 
Ab|---------------2-----------------|---------------2-----------------| 
Eb|-3---3-3-3-3-----0---------------|-3---3-3-3-3-----0---------------| 
    1 e & a 2 e & a 3 e & a 4 e & a   1 e & a 2 e & a 3 e & a 4 e & a 

                                                      "get out of my..." 
Gb|---------------------------------|-----------------4---------------| 
Db|---------------------------------|-------------4-------------------| 
Ab|-3---3-3---3-3---3---3-3---3-----|-2---2-2-2-2---------------------| 
Eb|-----------------------------3---|---------------------------------| 
    1 e & a 2 e & a 3 e & a 4 e & a   1 e & a 2 e & a 3 e & a 4 e & a 

Chorus 

   "hair..." 
Gb|---------------------------------|-----------------0---0-0-2-0-----| 
Db|-0h2-2-2-0h2-2-2-0h2-2-2---2-2---|-0---0-0---0-0-0-------------2-0-| 
Ab|-------------------------------0-|---------------------------------| 
Eb|---------------------------------|---------------------------------| 
    1 e & a 2 e & a 3 e & a 4 e & a   1 e & a 2 e & a 3 e & a 4 e & a 

Gb|---------------------------------|-----------------0---0-0-2-0-----| 
Db|-0h2-2-2-0h2-2-2-0h2-2-2---2-2---|-0---0-0---0-0-0-------------2-0-| 
Ab|-------------------------------0-|---------------------------------| 
Eb|---------------------------------|---------------------------------| 
    1 e & a 2 e & a 3 e & a 4 e & a   1 e & a 2 e & a 3 e & a 4 e & a 

verse 2 

           "Smoke my cigarettes..." 
Gb|---------------------------------|---------------------------------| 
Db|---------------------------------|-----------------0---0-0-2-0-----| 
Ab|-0h2-2-2-0h2-2-2-0h2-2-2---2-2---|-0---0-0---0-0-0-------------2-0-| 
Eb|-------------------------------0-|---------------------------------| 
    1 e & a 2 e & a 3 e & a 4 e & a   1 e & a 2 e & a 3 e & a 4 e & a 

Gb|---------------------------------|---------------------------------| 
Db|---------------------------------|-----------------0---0-0-2-0-----| 
Ab|-0h2-2-2-0h2-2-2-0h2-2-2---2-2---|-0---0-0---0-0-0-------------2-0-| 
Eb|-------------------------------0-|---------------------------------| 
    1 e & a 2 e & a 3 e & a 4 e & a   1 e & a 2 e & a 3 e & a 4 e & a 

Gb|---------------------------------|---------------------------------| 
Db|---------------------------------|-----------------0---0-0-2-0-----| 
Ab|-0h2-2-2-0h2-2-2-0h2-2-2---2-2---|-0---0-0---0-0-0-------------2-0-| 
Eb|-------------------------------0-|---------------------------------| 
    1 e & a 2 e & a 3 e & a 4 e & a   1 e & a 2 e & a 3 e & a 4 e & a 

Gb|---------------------------------|---------------------------------| 
Db|---------------------------------|-----------------0---0-0-2-0-----| 
Ab|-0h2-2-2-0h2-2-2-0h2-2-2---2-2---|-0---0-0---0-0-0-------------2-0-| 
Eb|-------------------------------0-|---------------------------------| 
    1 e & a 2 e & a 3 e & a 4 e & a   1 e & a 2 e & a 3 e & a 4 e & a 

Gb|---------------------------------|---------------------------------| 
Db|---------------------------------|-----------------0---0-0-2-0-----| 
Ab|-0h2-2-2-0h2-2-2-0h2-2-2---2-2---|-0---0-0---0-0-0-------------2-0-| 
Eb|-------------------------------0-|---------------------------------| 
    1 e & a 2 e & a 3 e & a 4 e & a   1 e & a 2 e & a 3 e & a 4 e & a 

Pre-Chorus 

   "trip over you..." 
Gb|---------------------------------|---------------------------------| 
Db|----------------------2-----2-2--|---------------------2-----2-2---| 
Ab|---------------2-----------------|---------------2-----------------| 
Eb|-3---3-3-3-3-----0---------------|-3---3-3-3-3-----0---------------| 
    1 e & a 2 e & a 3 e & a 4 e & a   1 e & a 2 e & a 3 e & a 4 e & a 

                                                      "get out of my..." 
Gb|---------------------------------|---------------------------------| 
Db|---------------------------------|---------------------------------| 
Ab|-3-3-3-3-----------------3-3-3-3-|-2---2---2---2---2---------------| 
Eb|---------0-0-0-0-3-3-3-3---------|---------------------------------| 
    1 e & a 2 e & a 3 e & a 4 e & a   1 e & a 2 e & a 3 e & a 4 e & a 

Chorus 

   "hair..." 
Gb|---------------------------------|-----------------0---0-0-2-0-----| 
Db|-0h2-2-2-0h2-2-2-0h2-2-2---2-2---|-0---0-0---0-0-0-------------2-0-| 
Ab|-------------------------------0-|---------------------------------| 
Eb|---------------------------------|---------------------------------| 
    1 e & a 2 e & a 3 e & a 4 e & a   1 e & a 2 e & a 3 e & a 4 e & a 

Gb|---------------------------------|-----------------0---0-0-2-0-----| 
Db|-0h2-2-2-0h2-2-2-0h2-2-2---2-2---|-0---0-0---0-0-0-------------2-0-| 
Ab|-------------------------------0-|---------------------------------| 
Eb|---------------------------------|---------------------------------| 
    1 e & a 2 e & a 3 e & a 4 e & a   1 e & a 2 e & a 3 e & a 4 e & a 

Bridge 

   "said, what is done..." 
Gb|---------------------------------|---------------------------------| 
Db|-------------------------2-------|-------------------------2-------| 
Ab|---------0h2---------------------|---------0h2---------------------| 
Eb|-3-----------0-------0-----------|-3-----------0-------0-----------| 
    1 e & a 2 e & a 3 e & a 4 e & a   1 e & a 2 e & a 3 e & a 4 e & a 

Gb|---------------------------------|---------------------------------| 
Db|-------------------------2-------|-------------------------2-------| 
Ab|---------0h2---------------------|---------0h2---------------------| 
Eb|-3-----------0-------0-----------|-3-----------0-------0-----------| 
    1 e & a 2 e & a 3 e & a 4 e & a   1 e & a 2 e & a 3 e & a 4 e & a 

   "How could you..." 
Gb|---------------------------------|---------------------------------| 
Db|---------------------------------|---------------------------------| 
Ab|-3---3-3-3-3-3-3-3-3-3-3-3-3-3-2-|-2---2-2-2-2-2-2-2-2-2-2-2-2-2-2-| 
Eb|---------------------------------|---------------------------------| 
    1 e & a 2 e & a 3 e & a 4 e & a   1 e & a 2 e & a 3 e & a 4 e & a 

Gb|---------------------------------|---------------------------------| 
Db|---------------------------------|---------------------------------| 
Ab|-3-3-3-3-----------------3-3-3-3-|-5---5-5-5-5-5-5-5-5-5-5-5-5-5-5-| 
Eb|---------0-0-0-0-3-3-3-3---------|---------------------------------| 
    1 e & a 2 e & a 3 e & a 4 e & a   1 e & a 2 e & a 3 e & a 4 e & a 

Instrumental 

Gb|---------------------------------|---------------------------------| 
Db|---------------------------------|-----------------0---0-0-2-0-----| 
Ab|-0h2-2-2-0h2-2-2-0h2-2-2---2-2---|-0---0-0---0-0-0-------------2-0-| 
Eb|-------------------------------0-|---------------------------------| 
    1 e & a 2 e & a 3 e & a 4 e & a   1 e & a 2 e & a 3 e & a 4 e & a 

Gb|---------------------------------|---------------------------------| 
Db|---------------------------------|-----------------0---0-0-2-0-----| 
Ab|-0h2-2-2-0h2-2-2-0h2-2-2---2-2---|-0---0-0---0-0-0-------------2-0-| 
Eb|-------------------------------0-|---------------------------------| 
    1 e & a 2 e & a 3 e & a 4 e & a   1 e & a 2 e & a 3 e & a 4 e & a 

verse 3 

           "Smash my windows..." 
Gb|---------------------------------|---------------------------------| 
Db|---------------------------------|-----------------0---0-0-2-0-----| 
Ab|-0h2-2-2-0h2-2-2-0h2-2-2---2-2---|-0---0-0---0-0-0-------------2-0-| 
Eb|-------------------------------0-|---------------------------------| 
    1 e & a 2 e & a 3 e & a 4 e & a   1 e & a 2 e & a 3 e & a 4 e & a 

Gb|---------------------------------|---------------------------------| 
Db|---------------------------------|-----------------0---0-0-2-0-----| 
Ab|-0h2-2-2-0h2-2-2-0h2-2-2---2-2---|-0---0-0---0-0-0-------------2-0-| 
Eb|-------------------------------0-|---------------------------------| 
    1 e & a 2 e & a 3 e & a 4 e & a   1 e & a 2 e & a 3 e & a 4 e & a 

Gb|---------------------------------| 
Db|---------------------------------| 
Ab|-0h2-2-2-0h2-2-2-0h2-2-2---2-2---| 
Eb|---------------------------------| 
    1 e & a 2 e & a 3 e & a 4 e & a 

Pre-Chorus 

   "who could it be..." 
Gb|---------------------------------|---------------------------------| 
Db|----------------------2-----2-2--|---------------------2-----2-2---| 
Ab|---------------2-----------------|---------------2-----------------| 
Eb|-3---3-3-3-3-----0---------------|-3---3-3-3-3-----0---------------| 
    1 e & a 2 e & a 3 e & a 4 e & a   1 e & a 2 e & a 3 e & a 4 e & a 

                                                      "get out of my..." 
Gb|---------------------------------|-----------------4---------------| 
Db|---------------------------------|-------------4-------------------| 
Ab|-3---3-3---3-3---3---3-3---3-----|-2---2-2-2-2---------------------| 
Eb|-----------------------------3---|---------------------------------| 
    1 e & a 2 e & a 3 e & a 4 e & a   1 e & a 2 e & a 3 e & a 4 e & a 

   "hair" 
Gb|---------------------------------| 
Db|---------------------------------| 
Ab|---------------------------------| 
Eb|---------------------------------| 
    1 e & a 2 e & a 3 e & a 4 e & a 

*********************************** 

| H   Hammer-on 
  
*********************************** 
		  

See also:

bass Deftones - Change bass The Ataris - Boys Of Summer bass Face To Face - Blind bass Dio - Holy Diver bass Gary Moore - Still got the Blues bass Children Of Bodom - Every Time I Die
e-chords

Other versions:

bass Smash Mouth - Trip bass U2 - Trip Through Your Wires bass Afi - Triple Zero bass Godsmack - Trippin bass Kittie - Trippin bass Dave Matthews Band - Trippin Billies
auto scroll beats size up size down change color hide chords drawings
tab show chords e-chords YouTube Clip e-chords hide all tabs e-chords go to top tab

share