Smash Mouth

Heave Ho

Smash Mouth

bass

by  AMAN_CLAUDINO

save to print version add songbook text version e-mail correct tuner
chordsukulelecavacokeyboardtabbassdrumsharmonicaflute Guitar Pro
close

there isn't a video lesson for this song

chords

Heave Ho

	  		verse 1 

                                       "Neighbour called..." 
Gb|-----------------|-----------------|-----------------|-----------------| 
Db|-----------------|-----------------|-----------------|-----------------| 
Ab|-----------------|-----------------|-----------------|-----------------| 
Eb|-----------------|-----------------|-----------------|-----------------| 
    1 & 2 & 3 & 4 &   1 & 2 & 3 & 4 &   1 & 2 & 3 & 4 &   1 & 2 & 3 & 4 & 

Gb|-----------------|-----------------|-----------------|-----------------| 
Db|-----------------|-----------------|-----------------|-----------------| 
Ab|-----------------|-----------------|-----------------|-----------------| 
Eb|-----------------|-----------------|-----------------|-----------------| 
    1 & 2 & 3 & 4 &   1 & 2 & 3 & 4 &   1 & 2 & 3 & 4 &   1 & 2 & 3 & 4 & 

Gb|-----------------|-----------------|-----------------|-----------------| 
Db|-----------------|-----------------|-----------------|-----------------| 
Ab|-----------------|-----------------|-----------------|-----------------| 
Eb|-----------------|-----------------|-----------------|-----------------| 
    1 & 2 & 3 & 4 &   1 & 2 & 3 & 4 &   1 & 2 & 3 & 4 &   1 & 2 & 3 & 4 & 

Gb|-----------------|-----------------|-----------------|-----------------| 
Db|-----------------|-----------------|-----------------|-----------------| 
Ab|-----------------|-----------------|-----------------|-----------------| 
Eb|-----------------|-----------------|-----------------|-----------------| 
    1 & 2 & 3 & 4 &   1 & 2 & 3 & 4 &   1 & 2 & 3 & 4 &   1 & 2 & 3 & 4 & 

Gb|-----------------|-----------------|-----------------|-----------------| 
Db|-----------------|-----------------|-----------------|-----------------| 
Ab|-----------------|-----------------|-----------------|-----------------| 
Eb|-----------------|-----------------|-----------------|-----------------| 
    1 & 2 & 3 & 4 &   1 & 2 & 3 & 4 &   1 & 2 & 3 & 4 &   1 & 2 & 3 & 4 & 

Gb|-----------------|-----------------|-----------------|-----------------| 
Db|-----------------|-----------------|-----------------|-----------------| 
Ab|-----------------|-----------------|-----------------|-----------------| 
Eb|-----------------|-----------------|-----------------|-----------------| 
    1 & 2 & 3 & 4 &   1 & 2 & 3 & 4 &   1 & 2 & 3 & 4 &   1 & 2 & 3 & 4 & 

Gb|-----------------|-----------------|-----------------|-----------------| 
Db|-----------------|-----------------|-----------------|-----------------| 
Ab|-----------------|-----------------|-----------------|-------6---6-6---| 
Eb|-0-0---3---3-3-0-|-0-0---3---3-3-0-|-0-0---3---3-3-0-|-0-0-----------0-| 
    1 & 2 & 3 & 4 &   1 & 2 & 3 & 4 &   1 & 2 & 3 & 4 &   1 & 2 & 3 & 4 & 

Gb|-----------------|-----------------|-----------------|-----------------| 
Db|-----------------|-----------------|-----------------|-----------------| 
Ab|-----------------|-----------------|-----------------|-------6---6-6---| 
Eb|-0-0---3---3-3-0-|-0-0---3---3-3-0-|-0-0---3---3-3-0-|-0-0-----------0-| 
    1 & 2 & 3 & 4 &   1 & 2 & 3 & 4 &   1 & 2 & 3 & 4 &   1 & 2 & 3 & 4 & 

verse 2 

   "What's up..." 
Gb|-----------------|-----------------|-----------------|-----------------| 
Db|-----------------|-----------------|-----------------|-----------------| 
Ab|-------2---2-2---|-------3---3-3---|-----------------|-----------------| 
Eb|-3-3-------------|-1-1-------------|-3-3---2---2-2---|-1-1---0---0-0---| 
    1 & 2 & 3 & 4 &   1 & 2 & 3 & 4 &   1 & 2 & 3 & 4 &   1 & 2 & 3 & 4 & 

Gb|-----------------|-----------------|-----------------|-----------------| 
Db|-----------------|---------------3-|-5-5-5-4---4-4-3-|-3-3---2---0-----| 
Ab|-------2---2-2---|-------3---3-3---|-----------------|-------------2---| 
Eb|-3-3-------------|-1-1-------------|-----------------|-----------------| 
    1 & 2 & 3 & 4 &   1 & 2 & 3 & 4 &   1 & 2 & 3 & 4 &   1 & 2 & 3 & 4 & 

   "Church mice..." 
Gb|-----------------|-----------------|-----------------|-----------------| 
Db|-----------------|-----------------|-----------------|-----------------| 
Ab|-------2---2-2---|-------3---3-3---|-----------------|-----------------| 
Eb|-3-3-------------|-1-1-------------|-3-3---2---2-2---|-1-1---0---0-0---| 
    1 & 2 & 3 & 4 &   1 & 2 & 3 & 4 &   1 & 2 & 3 & 4 &   1 & 2 & 3 & 4 & 

Gb|-----------------|-----------------|-----------------|-----------------| 
Db|-----------------|---------------3-|-5-5-5-4---4-4-3-|-3-3---2---0-----| 
Ab|-------2---2-2---|-------3---3-3---|-----------------|-------------2---| 
Eb|-3-3-------------|-1-1-------------|-----------------|-----------------| 
    1 & 2 & 3 & 4 &   1 & 2 & 3 & 4 &   1 & 2 & 3 & 4 &   1 & 2 & 3 & 4 & 

   "How much more..." 
Gb|-----------------|-----------------|-----------------|-----------------| 
Db|-----------------|-----------------|-3---3---3---3---|-2---0-----------| 
Ab|-5---5---5---5---|-3---3---3---3---|-----------------|---------2-------| 
Eb|-----------------|-----------------|-----------------|-------------3---| 
    1 & 2 & 3 & 4 &   1 & 2 & 3 & 4 &   1 & 2 & 3 & 4 &   1 & 2 & 3 & 4 & 

   "Maybe someday..." 
Gb|-----------------|-----------------|-----------------|-----------------| 
Db|-----------------|-----------------|-----------------|-----------------| 
Ab|-------2---2-2---|-------3---3-3---|-----------------|-----------------| 
Eb|-3-3-------------|-1-1-------------|-3-3---2---2-2---|-1-1---0---0-0---| 
    1 & 2 & 3 & 4 &   1 & 2 & 3 & 4 &   1 & 2 & 3 & 4 &   1 & 2 & 3 & 4 & 

Gb|-----------------|-----------------|-----------------|-----------------| 
Db|-----------------|---------------3-|-5-5-5-4---4-4-3-|-3-3---2---0-----| 
Ab|-------2---2-2---|-------3---3-3---|-----------------|-------------2---| 
Eb|-3-3-------------|-1-1-------------|-----------------|-----------------| 
    1 & 2 & 3 & 4 &   1 & 2 & 3 & 4 &   1 & 2 & 3 & 4 &   1 & 2 & 3 & 4 & 

   "I can't even..." 
Gb|-----------------|-----------------|-----------------|-----------------| 
Db|-----------------|-----------------|-----------------|-----------------| 
Ab|-------2---2-2---|-------3---3-3---|-----------------|-----------------| 
Eb|-3-3-------------|-1-1-------------|-3-3---2---2-2---|-1-1---0---0-0---| 
    1 & 2 & 3 & 4 &   1 & 2 & 3 & 4 &   1 & 2 & 3 & 4 &   1 & 2 & 3 & 4 & 

Gb|-----------------|-----------------|-----------------|-----------------| 
Db|-----------------|---------------3-|-5-5-5-4---4-4-3-|-3-3---2---0-----| 
Ab|-------2---2-2---|-------3---3-3---|-----------------|-------------2---| 
Eb|-3-3-------------|-1-1-------------|-----------------|-----------------| 
    1 & 2 & 3 & 4 &   1 & 2 & 3 & 4 &   1 & 2 & 3 & 4 &   1 & 2 & 3 & 4 & 

   "How much more..." 
Gb|-----------------|-----------------|-----------------|-----------------| 
Db|-----------------|-----------------|-3---3---3---3---|-3---------------| 
Ab|-5---5---5---5---|-3---3---3---3---|-----------------|-----------------| 
Eb|-----------------|-----------------|-----------------|-----------------| 
    1 & 2 & 3 & 4 &   1 & 2 & 3 & 4 &   1 & 2 & 3 & 4 &   1 & 2 & 3 & 4 & 

Chorus 

   "No more flop house..." 
Gb|-----------------|-----------------|-----------------|-----------------| 
Db|-----------------|-----------------|-----------------|-----------------| 
Ab|-----------------|-----------------|-----------------|-------6---6-6---| 
Eb|-0-0---3---3-3-0-|-0-0---3---3-3-0-|-0-0---3---3-3-0-|-0-0-----------0-| 
    1 & 2 & 3 & 4 &   1 & 2 & 3 & 4 &   1 & 2 & 3 & 4 &   1 & 2 & 3 & 4 & 

Gb|-----------------|-----------------|-----------------|-----------------| 
Db|-----------------|-----------------|-----------------|-----------------| 
Ab|-----------------|-----------------|-----------------|-------6-6-6-6-6-| 
Eb|-0-0---3---3-3-0-|-0-0---3---3-3-0-|-0-0---3---3-3-0-|-0---------------| 
    1 & 2 & 3 & 4 &   1 & 2 & 3 & 4 &   1 & 2 & 3 & 4 &   1 & 2 & 3 & 4 & 

   "She said these..." 
Gb|-----------------|-----------------|-----------------|-----------------| 
Db|-2-2---5---5-5---|-2-2-------------|-2-2---5-5-5-----|-2-2---1-1-1-1-1-| 
Ab|-----------------|-----------------|-----------------|-----------------| 
Eb|-----------------|-------3---3-3---|-----------------|-----------------| 
    1 & 2 & 3 & 4 &   1 & 2 & 3 & 4 &   1 & 2 & 3 & 4 &   1 & 2 & 3 & 4 & 

   "Ho..." 
Gb|-----------------|-----------------|-----------------|-----------------| 
Db|-----------------|-----------------|-----------------|-----------------| 
Ab|---------3-3-3---|---------3-3-3---|---------3-3-3---|-5---5---5-3-2---| 
Eb|-0---0-----------|-0---0-----------|-0---0-----------|-----------------| 
    1 & 2 & 3 & 4 &   1 & 2 & 3 & 4 &   1 & 2 & 3 & 4 &   1 & 2 & 3 & 4 & 

verse 3 

   "Neighbour called..." 
Gb|-----------------|-----------------|-----------------|-----------------| 
Db|-5-5-5-5-5-5-5-5-|-5-5-5-5-5-5-4-4-|-2-2-2-2-2-2-2-2-|-2-2-2-4-4-4-5-5-| 
Ab|-----------------|-----------------|-----------------|-----------------| 
Eb|-----------------|-----------------|-----------------|-----------------| 
    1 & 2 & 3 & 4 &   1 & 2 & 3 & 4 &   1 & 2 & 3 & 4 &   1 & 2 & 3 & 4 & 

Gb|-----------------|-----------------|-----------------|-----------------| 
Db|-7-7-7-7-7-7---7-|-6-6-6-6-6-6-6-6-|-3-3-3-3-3-3-3-3-|-3-3-3-3-3-3-3-3-| 
Ab|-------------7---|-----------------|-----------------|-----------------| 
Eb|-----------------|-----------------|-----------------|-----------------| 
    1 & 2 & 3 & 4 &   1 & 2 & 3 & 4 &   1 & 2 & 3 & 4 &   1 & 2 & 3 & 4 & 

   "Listening to..." 
Gb|-----------------|-----------------|-----------------|-----------------| 
Db|-5-5-5-5-5-5-5-5-|-5-5-5-5-5-5-4-4-|-2-2-2-2-2-2-2-2-|-2-2-2-4-4-4-5-5-| 
Ab|-----------------|-----------------|-----------------|-----------------| 
Eb|-----------------|-----------------|-----------------|-----------------| 
    1 & 2 & 3 & 4 &   1 & 2 & 3 & 4 &   1 & 2 & 3 & 4 &   1 & 2 & 3 & 4 & 

Gb|-----------------|-----------------|-----------------|-----------------| 
Db|-7-7-7-7-7-7---7-|-6-6-6-6-6-6-6-6-|-3-3-3-3-3-3-3-3-|-3-3-3-3-3-3-5---| 
Ab|-------------7---|-----------------|-----------------|-----------------| 
Eb|-----------------|-----------------|-----------------|-----------------| 
    1 & 2 & 3 & 4 &   1 & 2 & 3 & 4 &   1 & 2 & 3 & 4 &   1 & 2 & 3 & 4 & 

   "She got bent..." 
Gb|-----------------|-----------------|-----------------|-----------------| 
Db|-------------0-0-|-2-2-0-0---------|-----------------|-----------------| 
Ab|-3-3-3-3-3-3-----|---------3-3-3-3-|-0-0-0-0-0-0-0-0-|-----------------| 
Eb|-----------------|-----------------|-----------------|-4h5-5-4h5-5-5---| 
    1 & 2 & 3 & 4 &   1 & 2 & 3 & 4 &   1 & 2 & 3 & 4 &   1 & 2 & 3 & 4 & 

Gb|-----------------|-----------------| 
Db|-----------------|-----------------| 
Ab|-----------------|-----------------| 
Eb|-6---------------|-5---5---3---3---| 
    1 & 2 & 3 & 4 &   1 & 2 & 3 & 4 & 

   "Maybe someday..." 
Gb|-----------------|-----------------|-----------------|-----------------| 
Db|-----------------|-----------------|-----------------|-----------------| 
Ab|-------2---2-2---|-------3---3-3---|-----------------|-----------------| 
Eb|-3-3-------------|-1-1-------------|-3-3---2---2-2---|-1-1---0---0-0---| 
    1 & 2 & 3 & 4 &   1 & 2 & 3 & 4 &   1 & 2 & 3 & 4 &   1 & 2 & 3 & 4 & 

Gb|-----------------|-----------------|-----------------|-----------------| 
Db|-----------------|---------------3-|-5-5-5-4---4-4-3-|-3-3---2---0-----| 
Ab|-------2---2-2---|-------3---3-3---|-----------------|-------------2---| 
Eb|-3-3-------------|-1-1-------------|-----------------|-----------------| 
    1 & 2 & 3 & 4 &   1 & 2 & 3 & 4 &   1 & 2 & 3 & 4 &   1 & 2 & 3 & 4 & 

   "But I'd have..." 
Gb|-----------------|-----------------|-----------------|-----------------| 
Db|-----------------|-----------------|-----------------|-----------------| 
Ab|-------2---2-2---|-------3---3-3---|-----------------|-----------------| 
Eb|-3-3-------------|-1-1-------------|-3-3---2---2-2---|-1-1---0---0-0---| 
    1 & 2 & 3 & 4 &   1 & 2 & 3 & 4 &   1 & 2 & 3 & 4 &   1 & 2 & 3 & 4 & 

Gb|-----------------|-----------------|-----------------|-----------------| 
Db|-----------------|---------------3-|-5-5-5-4---4-4-3-|-3-3---2---0-----| 
Ab|-------2---2-2---|-------3---3-3---|-----------------|-------------2---| 
Eb|-3-3-------------|-1-1-------------|-----------------|-----------------| 
    1 & 2 & 3 & 4 &   1 & 2 & 3 & 4 &   1 & 2 & 3 & 4 &   1 & 2 & 3 & 4 & 

   "After all..." 
Gb|-----------------|-----------------|-----------------|-----------------| 
Db|-----------------|-----------------|-3---3---3---3---|-3---------------| 
Ab|-5---5---5---5---|-3---3---3---3---|-----------------|-----------------| 
Eb|-----------------|-----------------|-----------------|-----------------| 
    1 & 2 & 3 & 4 &   1 & 2 & 3 & 4 &   1 & 2 & 3 & 4 &   1 & 2 & 3 & 4 & 

Chorus 

   "No more music..." 
Gb|-----------------|-----------------|-----------------|-----------------| 
Db|-----------------|-----------------|-----------------|-----------------| 
Ab|-----------------|-----------------|-----------------|-------6-6-6-6-6-| 
Eb|-0-0---3---3-3-0-|-0-0---3---3-3-0-|-0-0---3---3-3-0-|-0-0-------------| 
    1 & 2 & 3 & 4 &   1 & 2 & 3 & 4 &   1 & 2 & 3 & 4 &   1 & 2 & 3 & 4 & 

Gb|-----------------|-----------------|-----------------|-----------------| 
Db|-----------------|-----------------|-----------------|-----------------| 
Ab|-----------------|-----------------|-----------------|-------6-6-6-6-6-| 
Eb|-0-0---3---3-3-0-|-0-0---3---3-3-0-|-0-0---3---3-3-0-|-0---------------| 
    1 & 2 & 3 & 4 &   1 & 2 & 3 & 4 &   1 & 2 & 3 & 4 &   1 & 2 & 3 & 4 & 

   "She said these..." 
Gb|-----------------|-----------------|-----------------|-----------------| 
Db|-2-2---5---5-5---|-2-2-------------|-2-2---5-5-5-----|-2-2---1-1-1-1-1-| 
Ab|-----------------|-----------------|-----------------|-----------------| 
Eb|-----------------|-------3---3-3---|-----------------|-----------------| 
    1 & 2 & 3 & 4 &   1 & 2 & 3 & 4 &   1 & 2 & 3 & 4 &   1 & 2 & 3 & 4 & 

   "Ho..." 
Gb|-----------------|-----------------|-----------------|-----------------| 
Db|-----------------|-----------------|-----------------|-----------------| 
Ab|---------3-3-3---|---------3-3-3---|---------3-3-3---|-----------------| 
Eb|-0---0-----------|-0---0-----------|-0---0-----------|-0---------------| 
    1 & 2 & 3 & 4 &   1 & 2 & 3 & 4 &   1 & 2 & 3 & 4 &   1 & 2 & 3 & 4 & 

Bridge 

   "Don't even hide..." 
Gb|-----------------|-----------------|-----------------|------------------------| 
Db|-0-0-4-4-5-5-7-7-|-7-7-5-5-4-------|-0-0-4-4-5-5-7-7-|-7--7--9--9--10-10-11---| 
Ab|-----------------|-------------7-7-|-----------------|------------------------| 
Eb|-----------------|-----------------|-----------------|------------------------| 
    1 & 2 & 3 & 4 &   1 & 2 & 3 & 4 &   1 & 2 & 3 & 4 &   1  &  2  &  3  &  4  & 

Gb|-----------------|-----------------|-----------------|-----------------| 
Db|-0-0-4-4-5-5-7-7-|-7-7-5-5-4-4-0-0-|-------5---5-----|-----------------| 
Ab|-----------------|-----------------|-3---3-------3---|-----------------| 
Eb|-----------------|-----------------|-----------------|-----------------| 
    1 & 2 & 3 & 4 &   1 & 2 & 3 & 4 &   1 & 2 & 3 & 4 &   1 & 2 & 3 & 4 &  

Verse 5 

   "Neighbour called..." 
Gb|-----------------|-----------------|-----------------|-----------------| 
Db|-----------------|-----------------|-----------------|-----------------| 
Ab|-----------------|-----------------|-----------------|-----------------| 
Eb|-----------------|-----------------|-----------------|-----------------| 
    1 & 2 & 3 & 4 &   1 & 2 & 3 & 4 &   1 & 2 & 3 & 4 &   1 & 2 & 3 & 4 & 

Gb|-----------------|-----------------|-----------------|-----------------| 
Db|-----------------|-----------------|-----------------|-----------------| 
Ab|-----------------|-----------------|-----------------|-----------------| 
Eb|-----------------|-----------------|-----------------|-----------------| 
    1 & 2 & 3 & 4 &   1 & 2 & 3 & 4 &   1 & 2 & 3 & 4 &   1 & 2 & 3 & 4 & 

   "Said that we..." 
Gb|-----------------|-----------------|-----------------|-----------------| 
Db|-5-5-5-5-5-5-5-5-|-5-5-5-5-5-5-5-5-|-2-2-2-2-2-2-2-2-|-2-2-2-2---2---2-| 
Ab|-----------------|-----------------|-----------------|---------2---2---| 
Eb|-----------------|-----------------|-----------------|-----------------| 
    1 & 2 & 3 & 4 &   1 & 2 & 3 & 4 &   1 & 2 & 3 & 4 &   1 & 2 & 3 & 4 & 

Gb|-----------------|-----------------|-----------------|-----------------| 
Db|-7-7-7-7-7-7-7-7-|-6-6-6-6-6-6-6-6-|-3-3-3-3-3-3-3-3-|-3-3-3-3-3-3-3-3-| 
Ab|-----------------|-----------------|-----------------|-----------------| 
Eb|-----------------|-----------------|-----------------|-----------------| 
    1 & 2 & 3 & 4 &   1 & 2 & 3 & 4 &   1 & 2 & 3 & 4 &   1 & 2 & 3 & 4 & 

   "Didn't get bent..."                                  
Gb|-----------------|-----------------|-----------------|-----------------| 
Db|-----------------|-----------------|-----------------|-----------------| 
Ab|-3-3-3-3-3-3-3-3-|-3-3-3-3-3-3-3-3-|-0-0-0-0-0-0-0-0-|-0-0-0-0-0-0-0-0-| 
Eb|-----------------|-----------------|-----------------|-----------------| 
    1 & 2 & 3 & 4 &   1 & 2 & 3 & 4 &   1 & 2 & 3 & 4 &   1 & 2 & 3 & 4 & 

   "Thirty days..." 
Gb|-----------------|-----------------|-----------------|-----------------| 
Db|-----------------|-----------------|-----------------|-----------------| 
Ab|-1---------------|-0---------------|-----------------|-----------------| 
Eb|-----------------|-----------------|-4---------------|-----------------| 
    1 & 2 & 3 & 4 &   1 & 2 & 3 & 4 &   1 & 2 & 3 & 4 &    1 & 2 & 3 & 4 &  

Instrumental 

   "Wooowww..." 
Gb|-----------------|-----------------|-----------------|-----------------| 
Db|-----------------|-----------------|-----------------|-----------------| 
Ab|-----------------|-----------------|-----------------|-------6-6-6-6-6-| 
Eb|-0-0---3---3-3-0-|-0-0---3---3-3-0-|-0-0---3---3-3-0-|-0-0-------------| 
    1 & 2 & 3 & 4 &   1 & 2 & 3 & 4 &   1 & 2 & 3 & 4 &   1 & 2 & 3 & 4 & 

Gb|-----------------|-----------------|-----------------|-----------------| 
Db|-----------------|-----------------|-----------------|-----------------| 
Ab|-----------------|-----------------|-----------------|-------6-6-6-6-6-| 
Eb|-0-0---3---3-3-0-|-0-0---3---3-3-0-|-0-0---3---3-3-0-|-0-0-------------| 
    1 & 2 & 3 & 4 &   1 & 2 & 3 & 4 &   1 & 2 & 3 & 4 &   1 & 2 & 3 & 4 & 

Chorus 

   "No more music..." 
Gb|-----------------|-----------------|-----------------|-----------------| 
Db|-----------------|-----------------|-----------------|-----------------| 
Ab|-----------------|-----------------|-----------------|-------6-6-6-6-6-| 
Eb|-0-0---3---3-3-0-|-0-0---3---3-3-0-|-0-0---3---3-3-0-|-0-0-------------| 
    1 & 2 & 3 & 4 &   1 & 2 & 3 & 4 &   1 & 2 & 3 & 4 &   1 & 2 & 3 & 4 & 

Gb|-----------------|-----------------|-----------------|-----------------| 
Db|-----------------|-----------------|-----------------|-----------------| 
Ab|-----------------|-----------------|-----------------|-------6-6-6-6-6-| 
Eb|-0-0---3---3-3-0-|-0-0---3---3-3-0-|-0-0---3---3-3-0-|-0-0-------------| 
    1 & 2 & 3 & 4 &   1 & 2 & 3 & 4 &   1 & 2 & 3 & 4 &   1 & 2 & 3 & 4 & 

   "She said these..." 
Gb|-----------------|-----------------|-----------------|-----------------| 
Db|-2-2---5---5-5---|-2-2-------------|-2-2---5-5-5-----|-2-2---1-1-1-1-1-| 
Ab|-----------------|-----------------|-----------------|-----------------| 
Eb|-----------------|-------3---3-3---|-----------------|-----------------| 
    1 & 2 & 3 & 4 &   1 & 2 & 3 & 4 &   1 & 2 & 3 & 4 &   1 & 2 & 3 & 4 & 

   "Ho..." 
Gb|-----------------|-----------------|-----------------|-----------------| 
Db|-----------------|-----------------|-----------------|-----------------| 
Ab|---------3-3-3---|---------3-3-3---|---------3-3-3---|-----------------| 
Eb|-0---0-----------|-0---0-----------|-0---0-----------|-0---------------| 
    1 & 2 & 3 & 4 &   1 & 2 & 3 & 4 &   1 & 2 & 3 & 4 &   1 & 2 & 3 & 4 & 

*********************************** 

| h   Hammer-on 

*********************************** 
		  

See also:

bass Deftones - Change bass The Ataris - Boys Of Summer bass Face To Face - Blind bass Dio - Holy Diver bass Gary Moore - Still got the Blues bass Children Of Bodom - Every Time I Die
e-chords

Other versions:

bass Smash Mouth - Heave Ho
auto scroll beats size up size down change color hide chords drawings
tab show chords e-chords YouTube Clip e-chords hide all tabs e-chords go to top tab

share