Slipknot

home > Slipknot

The Heretic Anthem Bass Tab

Slipknot

Difficulty: ExpertExpert

by maknim

tuner correct add songbook print version text version save to e-mail
chordsukulelecavacokeyboardtabbassdrummharmonicsflute Guitar Pro
chords

The Heretic Anthem

  		The heretic anthem: 
 
D| 
A| 
E| 
A| \1--0-0-0-1--0-0-1--0-0-1--0-0-1--0-0-1--0-0-1--0-0-1--0-0-1--0-0-1  
 
D| 
A| 
E| (X12) 
A|0-0-1 
 
D| 
A| 
E| (X1) 
A|0-0-1-1-1-1 
 
D|-------------------------------------- 
A|----------------0--------------------- 
E|-------4-5--------------------------- (X8) 
A|0--1--------------4-0-3-0-2------- 
 
D| 
A| 
E| (X8) 
A|0-1-0-3-0-5-0-7 
 
D| 
A| 
E| (X8) 
A|0-0-0-1-0-0-1-0-3-4-3 
 
D| 
A| 
E| (X8) 
A|0-1-0-3-0-5-0-7 
 
D| 
A| 
E| (X1) 
A|12\--12\--12\ 
 
D| 
A| 
E|---------------------------------1-----------------------1-0----- (X4) 
A|0-0-0-0-1-0-0-0-0-0-1-0-0-1-0-0------0-0-0-0-1-0-0-0-0---------2-1 
 
D| 
A| 
E|-----------------------------1--------------1-0-------(X2 
) A|0-0-0-0-1-------0-0-0-1-0-0----0-0-0-0-1----------2-1 
 
D| 
A| 
E|----------------------------1------------- 
A|0-0-0-0-1-------0-0-0-1-0-0----0-0-0-0-1 (X4) 
 
D| 
A| 
E| 
A|2~-----2/ 2\ 2~----2/(slow) 
 
D| 
A| 
E| (X4) 
A|0-1-0-3-0-5-0-7 
 
D| 
A| 
E|---------------------------------1----------------------1-0----- (X4) 
A|0-0-0-0-1-0-0-0-0-0-1-0-0-1-0-0-----0-0-0-0-1-0-0-0-0---------2-1 
 
D| 
A| 
E|---------------------------------1----------------------1-0---- (X1) 
A|0-0-0-0-1-0-0-0-0-0-1-0-0-1-0-0-----0-0-0-0-1-0-0-0-0---------2  
------------------------------------ 
Gently: 
D|------------------------------------------------------ 
A|------------------------------------------------------ 
E|------------------------------------------------------ 
A|3--3-3-3--3-3-3--3-3-3/7-7-7-7\2-2-2--2-2-2--2-2-2-5-5 
 
D|------------------------------------------------------- 
A|------------------------------------------------------- 
E|------------------------------------------------------- 
A|3--3-3-3--3-3-3--3-3-3/7-7-7-7\2-2-2--2-2--3--5--7(bend) 
 
D|-------------------- 
A|-------------------- 
E|-------------------- 
A|3~~~~~~---2~~~~~~---  
 
D|------------------------- 
A|------------------------- 
E|------------------------- 
A|3~~~~~13-13-13-15--2~~~~~ 
 
D|-------------------------------------------------------- 
A|-------------------------------------------------------- 
E|-------------------------------------------------------- 
A|3--3-3-3--3-3-3--3-3-3/7-7-7-7\2-2-2--2-2--3--5--7(bend) 
 
D|-------------------------- 
A|-------------------------- 
E|-------------------------- 
A|3~~~~~~~3~~~~~~~~3~~~~~~~~ 
 
D|------------------------- 
A|------------------------- 
E|------------------------- 
A|0-3~0-3~~0-5-0-0-2--0-0-2 
 
D|-------- 
A|-------- 
E|-------- 
A|0-2-0-3~ 
 
D|------------------------- 
A|------------------------- 
E|------------------------- 
A|0-3~0-3~~0-5-0-0-2--0-0-2 
 
tuning is AEAD 
 

	  

Search Paypal
auto scroll beats size up size down change color hide chords drawings
tab show chords e-chords YouTube Clip e-chords hide all tabs e-chords go to top tab