Slipknot

home > Slipknot

Opium of the people Bass Tab

Slipknot

Difficulty: nolevelnolevel

by VELHO

tuner correct add songbook print version text version save to e-mail
chordsukulelecavacokeyboardtabbassdrumsharmonicsflute Guitar Pro
chords

Opium of the people

  		Tuning: standard 5 string    B, E, A, D, G 

/ = slide one way or another 
~ = let ring 
^ = bend 

G|------------------------------------------------------------------------------------------------------------- 
D|--------------------------------------------------------------------------------------------------------------- 
A|------------------------------------------------------------------------------------------------------------- 
E|--------------------------------------------------------------------------------------------------------------- 
B|--/-0----0-----00----0-----00 ~ ------------------------------------------------------------------------------- 

G|-------------------------------------------------------------------------------------------------------------- 
D|------------------------------------------------------------------------------------------------------------- 
A|--------------------------------------------------------------------------------------------------------------- 
E|------------------------------------------------------------------------------------------------------------- 
B|--0-000000-0-00000-0-000000-0-000000-0-000000-0-00000-0-000000-0-00000-0-000000-0-00000---------- 

G|---------------------------------------------------------------------------------------------------------------- 
D|--------------------------------------------------------------------------------------------------------------- 
A|--------------------------------------------------------------------------------------------------------------   
E|-------------------------------------------------------------------------------------------------------------- 
B|---0---3-2-1-1/2-x-x--0---3-2-1-1/2-x-x--0---3-2-1-1/2-x-x--0---3-2-1--5-6-7-8^-----3-2-1-1-1-1--------------- 
( repeate a few times) 

G|------------------------------------------------------------------------------------------------------- 
D|-------------------------------------------------------------------------------------------------------- 
A|------------------------------------------------------------------------------------------------------- 
E|--------------------------------------------------------------------------------------------------------- 
B|--7777 -1111-0000-8888---------------------------------------------------------------------------------- 
 (repeate over and over) 

G|------------------------------------------------------------------------------------------------------------ 
D|------------------------------------------------------------------------------------------------------------ 
A|------------------------------------------------------------------------------------------------------------ 
E|-------------------------------------------------------------------------------------------------------------- 
B|--5------10---8-----5----8--10--8---------------------------------------------------------------------------- 
(lyrics: STOP! STOP! STOP!; at this point) 

G|---------------------------------------------------------------------------------------------- 
D|----------------------------------------------------------------------------------------------- 
A|------------------------------------------------------------------------------------------------ 
E|------------------------------------------------------------------------------------------------ 
B|--00-000-00-000-00-000-00-000------------------------------------------------------------------ 
	  

Full key step upFull key step up
Half key step upHalf key step up
Half key step downHalf key step down
Full key step downFull key step down
Search Paypal
auto scroll beats size up size down change color hide chords drawings
tab show chords e-chords YouTube Clip e-chords hide all tabs e-chords go to top tab