Skating Polly

Theyre Cheap I'm Free

Skating Polly

bass

by  HEBEALMEIDA

save to print version add songbook text version e-mail correct tuner
chordsukulelecavacokeyboardtabbassdrumsharmonicaflute Guitar Pro
close

there isn't a video lesson for this song

chords

Theyre Cheap I'm Free

	  		
verse 1 
G|------------------|------------------|------------------|------------------| 
D|------------------|------------------|------------------|------------------| 
A|------------------|------------------|------------------|------------------| (x2) 
E|(0)-0-3-0-7-8--7--|(0)-0-3-0-7-------|(0)-0-3-0-7-8--7--|(0)-0-3-0-7-------| 


Pre-Chorus 1 
G|------------------|------------------|------------------|------------------| 
D|------------------|------------------|------------------|------------------| 
A|------------------|------------------|------------------|------------------| 
E|(0)-0-3-0-7-8--7--|(0)-0-3-0-7-8--7--|(0)-0-3-0-7-8--7--|(0)-0-3-0-7-8--7--| 

G|------------------|------------------|------------------|--------------------| 
D|------------------|------------------|------------------|--------------------| 
A|-------------7-6--|------------------|-------------7-6--|--------------------| 
E|0-3-0-7-8-7-------|0-3-0-7-8-7--5----|0-3-0-7-8-7-------|12-11---8-7-8-0--3--| 


Chorus 1 
G|--------------|-----------------|--------------|-----------------| 
D|--------------|-----------------|--------------|-----------------| 
A|--------------|------------7-6--|--------------|------------7-6--| (x2) 
E|0-3-0-7-8--7--|0-3-0-7-8-7------|0-3-0-7-8--7--|0-3-0-7-8-7------| 


verse 2/Bridge 
G|-----------|-----------|-----------|-----------| 
D|-----------|-----------|-----------|-----------| 
A|-----------|-----------|-----------|-----------| (x3) 
E|0----3--3--|0----3--3--|0----3--3--|0----3--3--| 


Pre-Chorus 2 
G|------------------|------------------|------------------|--------------------| 
D|------------------|------------------|------------------|--------------------| 
A|-------------7-6--|------------------|-------------7-6--|--------------------| 
E|0-3-0-7-8-7-------|0-3-0-7-8-7--5----|0-3-0-7-8-7-------|12-11---8-7-8-0--3--| 


Chorus 2 
G|--------------|-----------------|--------------|-----------------| 
D|--------------|-----------------|--------------|-----------------| 
A|--------------|------------7-6--|--------------|------------7-6--| (x2) 
E|0-3-0-7-8--7--|0-3-0-7-8-7------|0-3-0-7-8--7--|0-3-0-7-8-7------| 

G|--------------|-----------------|--------------|--------------------| 
D|--------------|-----------------|--------------|--------------------| 
A|--------------|------------7-6--|--------------|--------------------| 
E|0-3-0-7-8--7--|0-3-0-7-8-7------|0-3-0-7-8--7--|12-11---8-7-8-0--3--| 


Outro 
G|-------------------------| 
D|-------------------------| 
A|-------------------------| (x13) 
E|0--0-0-0--0-0-0-0-0-3-2--| 

G|-------------------------| 
D|-------------------------| 
A|-------------------------| 
E|0--0-0-0--0-0-0----------| 



************************************ 

| ()   Ghost note 

************************************ 
		  

See also:

bass Deep Purple - Burn bass Deep Purple - Child in time bass Deep Purple - Smoke On The Water bass Deep Purple - Lady Double Dealer bass Deep Purple - Fire Ball bass Deep Purple - Smoke On The Water (ver. 3)
e-chords

Other versions:

bass Skating Polly - Theyre Cheap I'm Free
auto scroll beats size up size down change color hide chords drawings
tab show chords e-chords YouTube Clip e-chords hide all tabs e-chords go to top tab

share