Sixx Am

Life Is Beautiful

Sixx Am

bass Expert expert

by  DANNEGL

save to print version add songbook text version e-mail correct tuner
chordsukulelecavacokeyboardtabbassdrumsharmonicaflute Guitar Pro
close

there isn't a video lesson for this song

chords

Life Is Beautiful

	  		Artist: Sixx AM  
Album:The Heroin Diarrés Soundtrack  
Song: Life is Beautiful   

Tabbed by; dannegl 

The other versions didn´t seem right but I think this is. The timming is not very easy.  

Tuning: DGCF  

Build up: 
|----------------|  
|----------------|  
|----------------|  
|-5-5-5-5-5-5-5-5|  

Intro: 
|---7---7-9---7---7-9-0-7-0-7-9-0-7-0-7-9|  
|----------------------------------------|  
|-7---7-----7---7------------------------|  
|----------------------------------------|   

|-------------------------------------7---7-9---7---7-9|  
|-----12----12-14------12----12-14--7---7-----7---7----| 
|-15-----15--------15-----15---------------------------|  
|------------------------------------------------------|  

Main Riff: 
|-------------------------------------------------|   
|--------------------------5----------------------|  
|---5-7----5-7--7-5-7-5-7-----5-7-5-7--7-5-7------|  
|-0------0-----------------------------------6-5-3|  

|-------------------------------------------------|   
|--------------------------5----------------------|  
|---5-7----5-7--7-5-7-5-7-----5-7-5-7-------------|  
|-0------0-----------------------------6-5-3-6-5-3|   

Verse: 
|---7---7-9---7---7-9-0-7-0-7-9-0-7-0-7-9|  
|----------------------------------------|  
|-7---7-----7---7------------------------|  
|----------------------------------------|   

|-------------------------------------7---7-9---7---7-9|  
|-----12----12-14------12----12-14--7---7-----7---7----| 
|-15-----15--------15-----15---------------------------|  
|------------------------------------------------------|   

|---7---7-9---7---7-9-0-7-0-7-9-0-7-0-7-9|  
|----------------------------------------|  
|-7---7-----7---7------------------------|  
|----------------------------------------|   

|------------------------------------------------------|  
|-----12----12-14------12----12-14---------------------| 
|-15-----15--------15-----15---------------------------|  
|----------------------------------5-5---5-5---5-5-5-5-|   

Chorus:  
|---7---7-9---7---7-9-0-7-0-7-9-0-7-0-7-9|  
|----------------------------------------|  
|-7---7-----7---7------------------------|  
|----------------------------------------|   

|-------------------------------------7---7-9---7---7-9|  
|-----12----12-14------12----12-14--7---7-----7---7----| 
|-15-----15--------15-----15---------------------------|  
|------------------------------------------------------| X2  

Main Riff: 
|-------------------------------------------------|   
|--------------------------5----------------------|  
|---5-7----5-7--7-5-7-5-7-----5-7-5-7--7-5-7------|  
|-0------0-----------------------------------6-5-3|  

|-------------------------------------------------|   
|--------------------------5----------------------|  
|---5-7----5-7--7-5-7-5-7-----5-7-5-7-------------|  
|-0------0-----------------------------6-5-3-6-5-3|   

Verse: 
|---7---7-9---7---7-9-0-7-0-7-9-0-7-0-7-9|  
|----------------------------------------|  
|-7---7-----7---7------------------------|  
|----------------------------------------|   

|-------------------------------------7---7-9---7---7-9|  
|-----12----12-14------12----12-14--7---7-----7---7----| 
|-15-----15--------15-----15---------------------------|  
|------------------------------------------------------|   

|---7---7-9---7---7-9-0-7-0-7-9-0-7-0-7-9|  
|----------------------------------------|  
|-7---7-----7---7------------------------|  
|----------------------------------------|   

|------------------------------------------------------|  
|-----12----12-14------12----12-14---------------------| 
|-15-----15--------15-----15---------------------------|  
|----------------------------------5-5---5-5---5-5-5-5-|   

Chorus:  
|---7---7-9---7---7-9-0-7-0-7-9-0-7-0-7-9|  
|----------------------------------------|  
|-7---7-----7---7------------------------|  
|----------------------------------------|   

|-------------------------------------7---7-9---7---7-9|  
|-----12----12-14------12----12-14--7---7-----7---7----| 
|-15-----15--------15-----15---------------------------|  
|------------------------------------------------------| X2    

Stick:  
|-----------------------------------------------|  
|-9-7-------------------------------------------| 
|-----10-9--7-0-7-0-10-7-9-10--7-0-7-0-10-7-9-10|   
|-----------------------------------------------|  

|----------------------------------|  
|--------------------------9-7-----|  
|-6-0-6-0-9-6-8-9--6-0-6-0-----10-9|  
|----------------------------------| X3  

Only Acoustic Guitar  


Chorus:  
|---7---7-9---7---7-9-0-7-0-7-9-0-7-0-7-9|  
|----------------------------------------|  
|-7---7-----7---7------------------------|  
|----------------------------------------|   

|-------------------------------------7---7-9---7---7-9|  
|-----12----12-14------12----12-14--7---7-----7---7----| 
|-15-----15--------15-----15---------------------------|  
|------------------------------------------------------| X2   

Main Riff: 
|-------------------------------------------------|   
|--------------------------5----------------------|  
|---5-7----5-7--7-5-7-5-7-----5-7-5-7--7-5-7------|  
|-0------0-----------------------------------6-5-3|  

|-------------------------------------------------|   
|--------------------------5----------------------|  
|---5-7----5-7--7-5-7-5-7-----5-7-5-7-------------|  
|-0------0-----------------------------6-5-3-6-5-3| 
		  

See also:

bass Good Charlotte - The Anthem bass Audioslave - Gasoline bass Red Hot Chili Peppers - Easily bass Skillet - Savior bass Blues Traveler - Just Wait bass Good Charlotte - Hold On
e-chords

Other versions:

bass Sixx Am - Life Is Beautiful
auto scroll beats size up size down change color hide chords drawings
tab show chords e-chords YouTube Clip e-chords hide all tabs e-chords go to top tab

share