Simon & Garfunkel

home > Simon & Garfunkel

The Sun Is Burning Bass Tab

Simon & Garfunkel

Difficulty: nolevelnolevel

by tamamoreira

tuner correct add songbook print version text version save to e-mail
chordsukulelecavacokeyboardtabbassdrumsharmonicsflute Guitar Pro
chords

The Sun Is Burning

  		
G|----------------------------------------------------------------| 
D|--------------------------------2-------------------------------| 
A|2-----------------------2---------------------------------------| 
E|------------------------------------------------0---------------| 

G|----------------------------------------------------------------| 
D|----------------------------------------------------------------| 
A|----------------------------------------------------------------| 
E|2-------------------------------2-------------------------------| 

G|--------------------------------4-------------------------------| 
D|------------------------4---------------------------------------| 
A|2---------------------------------------------------------------| 
E|----------------------------------------------------------------| 

0:12 

G|----------------------------------------------------------------| 
D|----------------2---------------------------------------4-------| 
A|2-------------------------------2-------------------------------| 
E|----------------------------------------------------------------| 

G|4-------------------------------| 
D|------------------------4-------| 
A|--------------------------------| 
E|--------------------------------| 

G|------------------------------------------------| 
D|----------------2---------------2---------------| 
A|2-----------------------------------------------| 
E|------------------------------------------------| 

G|----------------------------------------------------------------| 
D|4-------------------------------4-------------------------------| 
A|------------------------4---------------------------------------| 
E|----------------------------------------------------------------| 

0:24 

G|----------------4-------3---------------------------------------| 
D|--------------------------------6---------------6-------4-------| 
A|2---------------------------------------------------------------| 
E|----------------------------------------------------------------| 

G|--------------------------------| 
D|2-------------------------------| 
A|------------------------2-------| 
E|--------------------------------| 

G|----------------------------------------------------------------| 
D|--------------------------------2-----------------------2-------| 
A|------------------------2---------------------------------------| 
E|0---------------------------------------------------------------| 

G|----------------------------------------------------------------| 
D|----------------2---------------------------------------4-------| 
A|2-------------------------------2-------------------------------| 
E|----------------------------------------------------------------| 

G|4---------------------------------------------------------------| 
D|------------------------4-----------------------4---------------| 
A|--------------------------------2-------------------------------| 
E|----------------------------------------------------------------| 

0:42 

G|----------------------------------------------------------------| 
D|----------------2---------------------------------------4-------| 
A|2-------------------------------2-------------------------------| 
E|----------------------------------------------------------------| 

G|4-------------------------------| 
D|------------------------4-------| 
A|--------------------------------| 
E|--------------------------------| 

G|------------------------------------------------| 
D|----------------2---------------2---------------| 
A|2-----------------------------------------------| 
E|------------------------------------------------| 

G|----------------------------------------------------------------| 
D|4-------------------------------4-------------------------------| 
A|------------------------4---------------------------------------| 
E|----------------------------------------------------------------| 

0:55 

G|----------------------------------------------------------------| 
D|------------------------4-------6-----------------------4-------| 
A|2---------------------------------------------------------------| 
E|----------------------------------------------------------------| 

G|--------------------------------| 
D|2-------------------------------| 
A|------------------------2-------| 
E|--------------------------------| 

G|----------------------------------------------------------------| 
D|--------------------------------2-------------------------------| 
A|----------------------------------------------------------------| 
E|0---------------------------------------------------------------| 

G|----------------------------------------------------------------| 
D|----------------2---------------------------------------4-------| 
A|2-------------------------------2-------------------------------| 
E|----------------------------------------------------------------| 

G|4---------------------------------------------------------------| 
D|------------------------4---------------------------------------| 
A|--------------------------------2-------------------------------| 
E|----------------------------------------------------------------| 

1:12 

G|----------------------------------------------------------------| 
D|----------------2---------------------------------------4-------| 
A|2-------------------------------2-------------------------------| 
E|----------------------------------------------------------------| 

G|4-------------------------------| 
D|------------------------4-------| 
A|--------------------------------| 
E|--------------------------------| 

G|------------------------------------------------| 
D|----------------2---------------2---------------| 
A|2-----------------------------------------------| 
E|------------------------------------------------| 

G|----------------------------------------------------------------| 
D|4-------------------------------4-------------------------------| 
A|------------------------4---------------------------------------| 
E|----------------------------------------------------------------| 

1:25 

G|----------------4-----------------------------------------------| 
D|--------------------------------6---------------------------4---| 
A|2-----------------------------------------------6---------------| 
E|----------------------------------------------------------------| 

G|--------------------------------| 
D|2-------------------------------| 
A|--------------------------------| 
E|----------------0---------------| 

G|----------------------------------------------------------------| 
D|--------------------------------2-----------------------2-------| 
A|------------------------2---------------------------------------| 
E|0---------------------------------------------------------------| 

G|----------------------------------------------------------------| 
D|----------------2---------------------------------------4-------| 
A|2-------------------------------2-------------------------------| 
E|----------------------------------------------------------------| 

G|4---------------------------------------------------------------| 
D|------------------------4---------------------------------------| 
A|--------------------------------2-------------------------------| 
E|----------------------------------------------------------------| 

1:43 

G|----------------------------------------------------------------| 
D|----------------2---------------------------------------4-------| 
A|2-------------------------------2-------------------------------| 
E|----------------------------------------------------------------| 

G|4-------------------------------| 
D|------------------------4-------| 
A|--------------------------------| 
E|--------------------------------| 

G|------------------------------------------------| 
D|----------------2---------------2---------------| 
A|2-----------------------------------------------| 
E|------------------------------------------------| 

G|----------------------------------------------------------------| 
D|4---------------------------------------------------------------| 
A|------------------------4---------------------------------------| 
E|--------------------------------2-------------------------------| 

1:55 

G|----------------4-------3---------------------------------------| 
D|--------------------------------6-------------------------------| 
A|2---------------------------------------------------------------| 
E|----------------------------------------------------------------| 

G|--------------------------------| 
D|----------------2---------------| 
A|--------------------------------| 
E|0-------------------------------| 

G|----------------------------------------------------------------| 
D|--------------------------------2-----------------------2-------| 
A|------------------------2---------------------------------------| 
E|0---------------------------------------------------------------| 

G|----------------------------------------------------------------| 
D|----------------2---------------------------------------4-------| 
A|2-------------------------------2-------------------------------| 
E|----------------------------------------------------------------| 

G|4---------------------------------------------------------------| 
D|----------------------------------------------------------------| 
A|--------------------------------2-------------------------------| 
E|----------------------------------------------------------------| 

2:13 

G|----------------------------------------------------------------| 
D|----------------2---------------------------------------4-------| 
A|2-------------------------------2-------------------------------| 
E|----------------------------------------------------------------| 

G|4-------------------------------| 
D|------------------------4-------| 
A|--------------------------------| 
E|--------------------------------| 

G|------------------------------------------------| 
D|----------------2---------------2---------------| 
A|2-----------------------------------------------| 
E|------------------------------------------------| 

G|----------------------------------------------------------------| 
D|4---------------------------------------------------------------| 
A|------------------------4---------------------------------------| 
E|--------------------------------2-------------------------------| 

2:26 

G|----------------------------------------------------------------| 
D|----------------------------------------------------------------| 
A|2---------------2-----------------------------------------------| 
E|--------------------------------4---------------4-------2-------| 

G|--------------------------------| 
D|----------------2---------------| 
A|--------------------------------| 
E|0-------------------------------| 

G|----------------------------------------------------------------| 
D|--------------------------------2-------------------------------| 
A|----------------------------------------------------------------| 
E|0---------------------------------------------------------------| 

G|----------------------------------------------------------------| 
D|----------------2---------------4-------------------------------| 
A|2---------------------------------------------------------------| 
E|----------------------------------------------------------------| 

G|------------------------------------| 
D|------------------------------------| 
A|------------------------------------| 
E|2-------------------------------2---| 
	  

Search Paypal
auto scroll beats size up size down change color hide chords drawings
tab show chords e-chords YouTube Clip e-chords hide all tabs e-chords go to top tab