Simon & Garfunkel

home > Simon & Garfunkel

A Most Peculiar Man Bass Tab

Simon & Garfunkel

Difficulty: nolevelnolevel

by edsooliveira

tuner correct add songbook print version text version save to e-mail
chordsukulelecavacokeyboardtabbassdrumsharmonicsflute Guitar Pro
chords

A Most Peculiar Man

  		

0:15 

G|--------| 
D|8-\-----| 
A|--------| 
E|--------| 

G|----------------------------------------------------------------| 
D|----------------8-----------8---------------8-------8-----------| 
A|6-----------6-------------------6-------------------------------| 
E|--------------------------------------------------------6-------| 

G|----------------------------------------------------------------| 
D|----------------8-----------8---6-----------------------6---\---| 
A|6-----------6-------------------------------6-------6-----------| 
E|----------------------------------------------------------------| 

G|----------------------------------------------------------------| 
D|--------------------------------------------6-----------6---5---| 
A|4-------------------------------4-------------------4-----------| 
E|----------------4-----------4-----------------------------------| 

G|----------------------------------------------------------------| 
D|4-----------4-----------4-------6-----------------------6---\---| 
A|----------------4-----------4---------------6-------6-----------| 
E|----------------------------------------------------------------| 

G|----------------------------------------------------------------| 
D|------------------------------------------------6---------------| 
A|4-------------------------------4-------------------------------| 
E|----------------4---------------------------------------4-------| 

G|----------------------------------------------------------------| 
D|------------------------------------------------6-------3/6-\---| 
A|4-------------------------------4-------------------------------| 
E|----------------4-----------------------------------------------| 

0:37 

G|----------------------------------------------------------------| 
D|--------------------------------------------6-------6-----------| 
A|4-----------4-------------------4-------------------------------| 
E|----------------4-----------4---------------------------4-------| 

G|----------------------------------------------------------------| 
D|--------------------------------------------6-------6---3/8-\---| 
A|4-----------4-------------------4-------------------------------| 
E|----------------4-----------4-----------------------------------| 

G|----------------------------------------------------------------| 
D|--------------------------------------------8-------8-----------| 
A|6-----------6-------------------6-------------------------------| 
E|----------------6-----------6---------------------------6-------| 

G|----------------------------------------------------------------| 
D|--------------------------------------------8-----------8---7---| 
A|6-----------6-------------------6-------------------6-----------| 
E|----------------6-----------6-----------------------------------| 

0:52 

G|----------------------------------------------------------------| 
D|6-----------6-------------------------------6-----------6---5---| 
A|----------------6-----------6---4-------------------4-----------| 
E|----------------------------------------------------------------| 

G|----------------------------------------------------------------| 
D|4-----------4-------------------6-----------------------6-------| 
A|----------------4-----------4---------------6-------6-----------| 
E|----------------------------------------------------------------| 

G|----------------------------------------------------------------| 
D|------------------------------------------------6---------------| 
A|4-------------------------------4-------------------------------| 
E|----------------4---------------------------------------4-------| 

G|----------------------------------------------------------------| 
D|------------------------------------------------6-------3/6-\---| 
A|4-------------------------------4-------------------------------| 
E|----------------4-----------------------------------------------| 

1:07 

G|----------------------------------------------------------------| 
D|--------------------------------------------6-------6-----------| 
A|4-----------4-------------------4-------------------------------| 
E|----------------4-----------4---------------------------4-------| 

G|----------------------------------------------------------------| 
D|--------------------------------------------6-------6---3/8-\---| 
A|4-----------4-------------------4-------------------------------| 
E|----------------4-----------4-----------------------------------| 

G|----------------------------------------------------------------| 
D|--------------------------------------------8-------8-----------| 
A|6-----------6-------------------6-------------------------------| 
E|----------------6-----------6---------------------------6-------| 

G|----------------------------------------------------------------| 
D|--------------------------------------------8-----------8---7---| 
A|6-----------6-------------------6-------------------6-----------| 
E|----------------6-----------6-----------------------------------| 

1:22 

G|----------------------------------------------------------------| 
D|6-----------6-------------------------------6-----------6---5---| 
A|----------------6-----------6---4-------------------4-----------| 
E|----------------------------------------------------------------| 

G|----------------------------------------------------------------| 
D|4-----------4-------------------6-----------------------6---\---| 
A|----------------4-----------4---------------6-------6-----------| 
E|----------------------------------------------------------------| 

G|----------------------------------------------------------------| 
D|------------------------------------------------6---------------| 
A|4-------------------------------4-------------------------------| 
E|----------------4---------------------------------------4-------| 

G|----------------------------------------------------------------| 
D|------------------------------------------------6-------3/6-\---| 
A|4-------------------------------4-------------------------------| 
E|----------------4-----------------------------------------------| 

1:36 

G|----------------------------------------------------------------| 
D|--------------------------------------------6-------6-----------| 
A|4-----------4-------------------4-------------------------------| 
E|----------------4-----------4---------------------------4-------| 

G|----------------------------------------------------------------| 
D|--------------------------------------------6-------6---3/8-\---| 
A|4-----------4-------------------4-------------------------------| 
E|----------------4-----------4-----------------------------------| 

G|----------------------------------------------------------------| 
D|--------------------------------------------8-------8-----------| 
A|6-----------6-------------------6-------------------------------| 
E|----------------6-----------6---------------------------6-------| 

G|----------------------------------------------------------------| 
D|--------------------------------------------8-------8---3/8-\---| 
A|6-----------6-------------------6-------------------------------| 
E|----------------6-----------6-----------------------------------| 

1:51 

G|----------------------------------------------------------------| 
D|--------------------------------------------8-------8-----------| 
A|6-----------6-------------------6-------------------------------| 
E|----------------6-----------6---------------------------6-------| 

G|----------------------------------------------------------------| 
D|--------------------------------------------8-----------8---7---| 
A|6-----------6-------------------6-------------------6-----------| 
E|----------------6-----------6-----------------------------------| 

G|----------------------------------------------------------------| 
D|6-----------6-------------------------------6-----------6-------| 
A|----------------6-----------6-----------------------6-----------| 
E|--------------------------------4-------------------------------| 

G|----------------------------------------------------------------| 
D|--------------------------------------------6-----------6---5---| 
A|4-----------4-------------------4-------------------4-----------| 
E|----------------4-----------4-----------------------------------| 

G|--------------------------------------------------------------------------------| 
D|4---------------6---------------------------------------------------------------| 
A|--------------------------------4-----------------------------------------------| 
E|------------------------------------------------6-------------------------------| 

G|----------------------------------------------------------------| 
D|----------------------------------------------------------------| 
A|----------------4-----------4---------------6-------------------| 
E|2-----------2-------------------4-------------------4---4---/---| 

2:14 Until fadeout. 

G|----------------------------------------------------------------| 
D|--------------------------------------------6-------6---3/6-\---| 
A|4-----------4-------------------4-------------------------------| 
E|----------------4-----------4-----------------------------------| 
	  

Search Paypal
auto scroll beats size up size down change color hide chords drawings
tab show chords e-chords YouTube Clip e-chords hide all tabs e-chords go to top tab