Sidewalk Slam

Stand Alone

Sidewalk Slam

bass nolevel nolevel

by  BRUNBLAZKOWSKI

save to print version add songbook text version e-mail correct tuner
chordsukulelecavacokeyboardtabbassdrumsharmonicaflute Guitar Pro
close

there isn't a video lesson for this song

chords

Stand Alone

	  		Track: #11 

Intro 2x 
 
G|----7-----7-----7-----7-| 
D|------------44----55----| 
A|-5----55----------------| 
E|------------------------| 
 

Verse  2x 
 
G|------------------------------------|------------------------| 
D|------------------------------------|------------------------| 
A|-------------10-10-10--999--777-555-|------------------------| 
E|-7777--5555-------------------------|-7777--5555--3333--5555-| 
 

Chorus  3x 
 
G|--------------------------------------| 
D|--------------------------------------| 
A|--------------------------10-10-10-10-| 
E|-7777--5555--10-10-10-10--------------| 
 

Post Chorus 
 
G|---------------------| 
D|---------------------| 
A|----------------10-9-| 
E|-7777--5555--10------| 
 

Intro 2x 
verse 2x 
Chorus 3x 
Post Chorus 

Bridge 
 
G|--------------------------7-5--|--------------------------7-5-4h5-| 
D|----5-----5-----5-----5------7-|-----5-----5-----5-----5----------| 
A|-55----------------5-----------|-55-----------------5-------------| 
E|------55----33-----------------|-------55----33-------------------| 
 

Chorus 3x 

Last Chorus 
 
G|------------------------------| 
D|------------------------------| 
A|--------------------------10~-| 
E|-7777--5555--10-10-10-10------| 
		  

See also:

bass Deep Purple - When a Blind man cries bass Deep Purple - Smoke On The Water bass Deep Purple - Ted The Mechanic bass Deep Purple - Smoke On The Waterr bass Deep Purple - Into The Fire bass Deep Purple - Smoke On The Water (ver. 2)
e-chords

Other versions:

bass Iced Earth - Stand Alone bass Sidewalk Slam - Stand Alone
auto scroll beats size up size down change color hide chords drawings
tab show chords e-chords YouTube Clip e-chords hide all tabs e-chords go to top tab

share with facebook