Si Cranstoun

home > Si Cranstoun

A Christmas Twist Bass Tab

Si Cranstoun

Difficulty: nolevelnolevel

by abelamin

tuner correct add songbook print version text version save to e-mail
chordsukulelecavacokeyboardtabbassdrumsharmonicsflute Guitar Pro
chords

A Christmas Twist

  		verse 1: 
G|-------------|---------------------------------------------------| 
D|-VOCAL START-|-1--1-----1--1-----1--1-----1--1-----1--1--------1-| 
A|-------------|-----3-1------3-1------3-1------3-1------3-1--1-3--| 
E|-------------|---------------------------------------------------| 

                                              (Break) 
G|-----------------1--1-1---0--0-0-------------3-| 
D|-1--1---------1-------------------3--3--3--3---| 
A|-----3-1--1-3----------------------------------| 
E|-----------------------------------------------| 

Chorus 1:                                                (Play This Bit x2) 
G|-------------------3--3-----3--3-----1--1-----1--1----------------------| 
D|-1--1-----1--1---------5-3------5-3------3-1------3-1---1--1----1--1----| 
A|-----3-1------3-1-------------------------------------------3-1-----3-1-| 
E|------------------------------------------------------------------------| 

verse 2: 
G|-------------|---------------------------------------------------------| 
D|-VOCAL START-|-1--1----1--1----1--1----1--1----1--1----1--1----1--1----| 
A|-------------|-----3-1-----3-1-----3-1-----3-1-----3-1-----3-1-----3-1-| 
E|-------------|---------------------------------------------------------| 

                                                     (Break) 
G|-------------------------1--1-1---0--0-0-------------3-| 
D|-----1---1--1---------1-------------------3--3--3--3---| 
A|-1-3---------3-1--1-3----------------------------------| 
E|-------------------------------------------------------| 

Chorus 2: 
G|-------------------3--3-----3--3-----1--1-----1--1----------------------| 
D|-1--1-----1--1---------5-3------5-3------3-1------3-1---1--1----1--1----| 
A|-----3-1------3-1-------------------------------------------3-1-----3-1-| 
E|------------------------------------------------------------------------| 

G|------------------3--3----3--3-----1--1-----1--1-----------------------| 
D|-1--1-----1--1--------5-3-----5-3------3-1------3-1---1--1----1--1-1-0-| 
A|-----3-1------3-1-----------------------------------------3-1----------| 
E|-----------------------------------------------------------------------| 

Bridge: 
G|--------------------------------------------------------------------| 
D|--------------------------------------------------------------------| 
A|-3--3-0----3--3-0----1--1----1--1----3--3-0----3--3-0----1-1-1-1/13-| 
E|-------3---------3-------3-1-----3-1-------3---------3--------------| 

Sax Solo: 
G|-------------------3--3-----3--3-----1--1-----1--1--------------| 
D|-1--1-----1--1---------5-3------5-3------3-1------3-1---1--1----| 
A|-----3-1------3-1-------------------------------------------3-1-| 
E|----------------------------------------------------------------| 

G|-----------------| 
D|-1-1-1-1/8-8-8-8-| 
A|-----------------| 
E|-----------------| 

Chorus 1:                                                (Play This Bit x2) 
G|-------------------3--3-----3--3-----1--1-----1--1----------------------| 
D|-1--1-----1--1---------5-3------5-3------3-1------3-1---1--1----1--1----| 
A|-----3-1------3-1-------------------------------------------3-1-----3-1-| 
E|------------------------------------------------------------------------| 

Outro:                                                           (END) 
G|-1--1-----1--1-----------------------1--1----1--1-----------------| 
D|-----3-1------3-1---1--1----1--1---------3-1-----3-1---1--1-----1-| 
A|------------------------3-1-----3-1------------------------3-1----| 
E|------------------------------------------------------------------| 
	  

Search Paypal
auto scroll beats size up size down change color hide chords drawings
tab show chords e-chords YouTube Clip e-chords hide all tabs e-chords go to top tab