Sepultura

home > Sepultura

Born Stubborn Bass Tab

Sepultura

Difficulty: nolevelnolevel

by VELHO

tuner correct add songbook print version text version save to e-mail
chordsukulelecavacokeyboardtabbassdrumsharmonicsflute Guitar Pro
chords

Born Stubborn

  		This song is a basic heavy metal bass line to play, 
but i enjoy playing it in a band, so learn it! 

Drop E to D   (D,A,D,G) 

Beginning Riff: 

G||------------------|| 
D||------------------|| 
A||------------------||  
D||-0-0-0-0--0-0-0---|| x8 

Next Riff: 

G||-------------------------|| 
D||-------------------------|| 
A||-------------------------|| 
D||-0-0-0-0-0-0-0-0-4-5-7---|| x3 

G||-------------------------|| 
D||-------------------------|| 
A||-------------------------|| 
D||-0-0-0-0-0-0-0-0-4-1-0---||x1 after the riff above 

Bridge Before Chorus: 

G||---------------------------------------|| 
D||---------------------------------------|| 
A||---------------------------------------|| 
D||-0-0-0-0-0-0-0-00-0-0-0-0-0-0-0-0-0-0--|| x1 

Chorus: 

G||--------------|| 
D||--------------|| 
A||--------------|| 
D||-0-00-0-4-5---|| x8 

Bridge: 

G||----------------------|| 
D||----------------------|| 
A||----------------------|| 
D||-0-0-0-0-0-0-1-3-4-3--|| x4 

Chorus: 

G||--------------|| 
D||--------------|| 
A||--------------|| 
D||-0-00-0-4-5---|| x8 

Break: 

G||-------------------------|| 
D||-------------------------|| 
A||-------------------------|| 
D||-1-0---1-0---1-0---1-0---|| x1 

Bridge: 

G||----------------------------|| 
D||----------------------------|| 
A||----------------------------|| 
D||-0-0-0-0-0-0-0-00-0-0-0-0---|| x1 

Chorus: 

G||-------------|| 
D||-------------|| 
A||-------------|| 
D||-0-00-0-4-5--|| x8 

Break: 

G||-------------------------|| 
D||-------------------------|| 
A||-------------------------|| 
D||-1-0---1-0---1-0---1-0---|| x1 

Bridge: 

G||-----------------|| 
D||-----------------|| 
A||-----------------|| 
D||-1-0---1-3-4-3---|| x12 

Break: 

G||------------------|| 
D||------------------|| 
A||------------------|| 
D||-0-0-0-0-0-0-00---|| x8 

Chorus: 

G||-------------|| 
D||-------------|| 
A||-------------|| 
D||-0-00-0-4-5--|| x8 

Break: 

G||---------------------------------------|| 
D||---------------------------------------|| 
A||---------------------------------------|| 
D||-1-0---1-0---6-0-6--1-0---1-0---6-0-6--|| x1 

Last Riff: 

G||----------------|| 
D||----------------|| 
A||----------------|| 
D||-0-00-0-6-0-6---|| x8 

                       Your Done! 
	  

Full key step upFull key step up
Half key step upHalf key step up
Half key step downHalf key step down
Full key step downFull key step down
Search Paypal
auto scroll beats size up size down change color hide chords drawings
tab show chords e-chords YouTube Clip e-chords hide all tabs e-chords go to top tab