Sepultura

home > Sepultura

Attitude Bass Tab

Sepultura

Difficulty: nolevelnolevel

by VELHO

tuner correct add songbook print version text version save to e-mail
chordsukulelecavacokeyboardtabbassdrummharmonicsflute Guitar Pro
chords

Attitude

  		Adapted for 4 string bass 
  
 |--------------------|--------------------|--------------------| 
 |--------------------|--------------------|--------------------| 
 |--1-0-0-0--1-0-0-0--|--1-0-0-0--1-0-0-0--|--1-0-0-0--1-0-0-0--| 
 |--------------------|--------------------|--------------------| 

 |--------------------|--------------------|--------------------| 
 |--------------------|--------------------|--------------------| 
 |--1-0-0-0--1-0-0-0--|--1-0-0-0--1-0-0-0--|--1-0-0-0--1-0-0-0--| 
 |--------------------|--------------------|--------------------| 
  
 |--------------------|--------------------|-------------------| 
 |--------------------|--------------------|-------------------| 
 |--1-0-0-0--1-0-0-0--|--1-0-0-0--1-0-0-0--|--0-0-0-0-0-0-0-0--| 
 |--------------------|--------------------|-------------------| 

 |----------------------|-------------------|----------------------| 
 |----------------------|-------------------|----------------------| 
 |--0-0-0-0-0-0-0-0--0--|--0-0-0-0-0-0-0-0--|--0-0-0-0-0-0-0-0--0--| 
 |----------------------|-------------------|----------------------| 

 |-------------------|----------------------|-------------------| 
 |-------------------|----------------------|-------------------| 
 |--0-0-0-0-0-0-0-0--|--0-0-0-0-0-0-0-0--0--|--0-0-0-0-0-0-0-0--| 
 |-------------------|----------------------|-------------------| 

 |----------------------| 
 |----------------------| 
 |--0-0-0-0-0-0-0-0--0--| 
 |----------------------| 

 |---------------|---------------|---------------|---------------| 
 |---------------|---------------|---------------|---------------| 
 |--5-5-5-6-6-8--|--5-5-5-6-6-8--|--5-5-5-6-6-8--|--5-5-5-6-6-8--| 
 |---------------|---------------|---------------|---------------| 
  
 |---------------|---------------|---------------|---------------| 
 |---------------|---------------|---------------|---------------| 
 |--5-5-5-6-6-8--|--5-5-5-6-6-8--|--5-5-5-6-6-8--|--5-5-5-6-6-8--| 
 |---------------|---------------|---------------|---------------| 
  
 |--------| 
 |--------| 
 |-----5--| 
 |--------| 

 |--------------------|--------------------|--------------------| 
 |--------------------|--------------------|--------------------| 
 |--3-5-5-5--3-5-5-5--|--3-5-5-5--3-5-5-5--|--3-5-5-5--3-5-5-5--| 
 |--------------------|--------------------|--------------------| 

 |--------------------|--------------------|--------------------| 
 |--------------------|--------------------|--------------------| 
 |--3-5-5-5--3-5-5-5--|--3-5-5-5--3-5-5-5--|--3-5-5-5--3-5-5-5--| 
 |--------------------|--------------------|--------------------| 

 |--------------------|--------------------| 
 |--------------------|--------------------| 
 |--3-5-5-5--3-5-5-5--|--3-5-5-5--3-5-5-5--| 
 |--------------------|--------------------| 

 |---------------|---------------|---------------|---------------| 
 |---------------|---------------|---------------|---------------| 
 |--5-5-5-6-6-8--|--5-5-5-6-6-8--|--5-5-5-6-6-8--|--5-5-5-6-6-8--| 
 |---------------|---------------|---------------|---------------| 
  
 |---------------|---------------|---------------|---------------| 
 |---------------|---------------|---------------|---------------| 
 |--5-5-5-6-6-8--|--5-5-5-6-6-8--|--5-5-5-6-6-8--|--5-5-5-6-6-8--| 
 |---------------|---------------|---------------|---------------| 
  
 |--------------------|--------------------|--------------------| 
 |--------------------|--------------------|--------------------| 
 |--3-5-5-5--3-5-5-5--|--3-5-5-5--3-5-5-5--|--3-5-5-5--3-5-5-5--| 
 |--------------------|--------------------|--------------------| 

 |--------------------|--------------------|--------------------| 
 |--------------------|--------------------|--------------------| 
 |--3-5-5-5--3-5-5-5--|--3-5-5-5--3-5-5-5--|--3-5-5-5--3-5-5-5--| 
 |--------------------|--------------------|--------------------| 

 |--------------------|--------------------| 
 |--------------------|--------------------| 
 |--3-5-5-5--3-5-5-5--|--3-5-5-5--3-5-5-5--| 
 |--------------------|--------------------| 
  
 |---------------|---------------|---------------|---------------| 
 |---------------|---------------|---------------|---------------| 
 |--3-5-5-3-5-5--|--3-5-5-3-5-5--|--3-5-5-3-5-5--|--3-5-5-3-5-5--| 
 |---------------|---------------|---------------|---------------| 

 |---------------|---------------|---------------|---------------| 
 |---------------|---------------|---------------|---------------| 
 |--5-5-5-6-6-8--|--5-5-5-6-6-8--|--5-5-5-6-6-8--|--5-5-5-6-6-8--| 
 |---------------|---------------|---------------|---------------| 
  
 |---------------|---------------|---------------|---------------| 
 |---------------|---------------|---------------|---------------| 
 |--5-5-5-6-6-8--|--5-5-5-6-6-8--|--5-5-5-6-6-8--|--5-5-5-6-6-8--| 
 |---------------|---------------|---------------|---------------| 

 |--------------------|--------------------|--------------------| 
 |--------------------|--------------------|--------------------| 
 |--3-5-5-5--3-5-5-5--|--3-5-5-5--3-5-5-5--|--3-5-5-5--3-5-5-5--| 
 |--------------------|--------------------|--------------------| 

 |--------------------|--------------------|--------------------| 
 |--------------------|--------------------|--------------------| 
 |--3-5-5-5--3-5-5-5--|--3-5-5-5--3-5-5-5--|--3-5-5-5--3-5-5-5--| 
 |--------------------|--------------------|--------------------| 

 |--------------------|--------------------|--------|--------| 
 |--------------------|--------------------|--------|--------| 
 |--3-5-5-5--3-5-5-5--|--3-5-5-5--3-5-5-5--|-----3--|-----3--| 
 |--------------------|--------------------|--------|--------| 

 |-------------------|-------------------|-------------------| 
 |------6-----6---6--|------6-----6---6--|------6-----6---6--| 
 |--5-5---5-5---5----|--5-5---5-5---5----|--5-5---5-5---5----| 
 |-------------------|-------------------|-------------------| 

 |-------------------|-------------------|-------------------| 
 |------6-----6---6--|------6-----6---6--|------6-----6---6--| 
 |--5-5---5-5---5----|--5-5---5-5---5----|--5-5---5-5---5----| 
 |-------------------|-------------------|-------------------| 
  
 |-------------------|-------------------| 
 |------6-----6---6--|------6-----6---6--| 
 |--5-5---5-5---5----|--5-5---5-5---5----| 
 |-------------------|-------------------| 

 |-------------------|-------------------| 
 |------6-----6---6--|-------------------| 
 |--5-5---5-5---5----|--5-5-5-5-5-5-5-5--| 
 |-------------------|-------------------| 
  
 |-------------------|-------------------| 
 |------6-----6---6--|-------------------| 
 |--5-5---5-5---5----|--5-5-5-5-5-5-5-5--| 
 |-------------------|-------------------| 
  
 |-------------------|-------------------| 
 |------6-----6---6--|-------------------| 
 |--5-5---5-5---5----|--5-5-5-5-5-5-5-5--| 
 |-------------------|-------------------| 
  
 |-------------------|-------------------| 
 |------6-----6---6--|-------------------| 
 |--5-5---5-5---5----|--5-5-5-5-5-5-5-5--| 
 |-------------------|-------------------| 

 |-------------------|-------------------| 
 |------6-----6---6--|-------------------| 
 |--5-5---5-5---5----|--5-5-5-5-5-5-5-5--| 
 |-------------------|-------------------| 

 |-------------------|-------------------| 
 |------6-----6---6--|-------------------| 
 |--5-5---5-5---5----|--5-5-5-5-5-5-5-5--| 
 |-------------------|-------------------| 

 |-------------------|-------------------| 
 |------6-----6---6--|-------------------| 
 |--5-5---5-5---5----|--5-5-5-5-5-5-5-5--| 
 |-------------------|-------------------| 

 |-------------------|-------------------| 
 |-------------------|-------------------| 
 |-------------------|-------------------| 
 |-------------------|-------------------| 

 |-------------------|-------------------| 
 |------6-----6---6--|-------------------| 
 |--5-5---5-5---5----|--5-5-5-5-5-5-5-5--| 
 |-------------------|-------------------| 

 |-------------------|-------------------| 
 |------6-----6---6--|-------------------| 
 |--5-5---5-5---5----|--5-5-5-5-5-5-5-5--| 
 |-------------------|-------------------| 

 |-------------------|-------------------| 
 |------6-----6---6--|-------------------| 
 |--5-5---5-5---5----|--5-5-5-5-5-5-5-5--| 
 |-------------------|-------------------| 

 |-------------------|-------------------|--------|--------| 
 |------6-----6---6--|-------------------|--------|--------| 
 |--5-5---5-5---5----|--5-5-5-5-5-5-5-5--|-----5--|-----5--| 
 |-------------------|-------------------|--------|--------| 

 |--------------------|--------------------|--------------------| 
 |--------------------|--------------------|--------------------| 
 |--3-5-5-5--3-5-5-5--|--3-5-5-5--3-5-5-5--|--3-5-5-5--3-5-5-5--| 
 |--------------------|--------------------|--------------------| 

 |--------------------|--------------------|--------------------| 
 |--------------------|--------------------|--------------------| 
 |--3-5-5-5--3-5-5-5--|--3-5-5-5--3-5-5-5--|--3-5-5-5--3-5-5-5--| 
 |--------------------|--------------------|--------------------| 

 |--------------------|--------------------| 
 |--------------------|--------------------| 
 |--3-5-5-5--3-5-5-5--|--3-5-5-5--3-5-5-5--| 
 |--------------------|--------------------| 

 |--------------------|--------------------|--------------------| 
 |--------------------|--------------------|--------------------| 
 |--3-5-5-5--3-5-5-5--|--3-5-5-5--3-5-5-5--|--3-5-5-5--3-5-5-5--| 
 |--------------------|--------------------|--------------------| 

 |--------------------|--------------------|--------------------| 
 |--------------------|--------------------|--------------------| 
 |--3-5-5-5--3-5-5-5--|--3-5-5-5--3-5-5-5--|--3-5-5-5--3-5-5-5--| 
 |--------------------|--------------------|--------------------| 

 |--------------------|--------------------| 
 |--------------------|--------------------| 
 |--3-5-5-5--3-5-5-5--|--3-5-5-5--3-5-5-5--| 
 |--------------------|--------------------| 

 |----------------------| 
 |----------------------| 
 |--3-3--3-3--3-3--3-3--| 
 |----------------------| 
	  

Search Paypal
auto scroll beats size up size down change color hide chords drawings
tab show chords e-chords YouTube Clip e-chords hide all tabs e-chords go to top tab