Senses Fail

New Jersey Makes The World Takes

Senses Fail

bass

by  TERR_SCHMITZ

save to print version add songbook text version e-mail correct tuner
chordsukulelecavacokeyboardtabbassdrumsharmonicaflute Guitar Pro
close

there isn't a video lesson for this song

chords

New Jersey Makes The World Takes

	  		
Intro 
G|-----------------|-----------------| 
D|-----------------|-----------------| 
A|-----------------|-----------------| 
D|-(0)~------------|-----------------| 

G|-----------------|-----------------|-----------------|-----------------| 
D|-----------------|-----------------|-----------------|-----------------| 
A|-2-2-2-2-2-2-0---|-0-0-0-0-0-0-0-0-|-----------------|-----------------| 
D|-----------------|-----------------|-0-0-0-0-0-0-5---|-5-5-5-5-5-5-5-5-| 

G|-----------------|-----------------|-----------------|-----------------| 
D|-----------------|-----------------|-----------------|-----------------| 
A|-2-2-2-2-2-2-0---|-0-0-0-0-0-0-0-0-|-----------------|-----------------| 
D|-----------------|-----------------|-0-0-0-0-0-0-0-0-|-4-4-4-4-4-4-4-4-| 

G|-----------------|-----------------|-----------------|-----------------| 
D|-----------------|-----------------|-----------------|-----------------| 
A|-2-2-2-2-2-2-0---|-0-0-0-0-0-0-0-0-|-----------------|-----------------| 
D|-----------------|-----------------|-0-0-0-0-0-0-5---|-5-5-5-5-5-5-5-5-| 

G|-----------------|-----------------|-----------------|-----------------| 
D|-----------------|-----------------|-----------------|-----------------| 
A|-2-2-2-2-2-2-0---|-0-0-0-0-0-0-0-0-|-----------------|-----------------| 
D|-----------------|-----------------|-0-0-0-0-0-0-0-0-|-4-4-4-4-4-4-4-4-| 

Verse I  
G|-----------------|-----------------|-----------------|-----------------| 
D|-----------------|-----------------|-----------------|-----------------| 
A|-2-2-2---2---2-2-|-0---0---0-0-0---|-----------------|-----------------| 
D|-----------------|-----------------|-0-0-0---0---0-0-|-5---5---5-5-5---| 

G|-----------------|-----------------|-----------------|-----------------| 
D|-----------------|-----------------|-----------------|-----------------| 
A|-2-2-2---2---2-2-|-0---0---0-0-0---|-----------------|-----------------| 
D|-----------------|-----------------|-0-0-0---0---0-0-|-5---5---5-5-5---| 

G|-----------------|-----------------|-----------------|-----------------| 
D|-----------------|-----------------|-----------------|-----------------| 
A|-2-2-2---2---2-2-|-0---0---0-0-0---|-----------------|-----------------| 
D|-----------------|-----------------|-0-0-0---0---0-0-|-5---5---5-5-5---| 

G|-----------------|-----------------|-----------------|-----------------| 
D|-----------------|-----------------|-----------------|-----------------| 
A|-2-2-2---2---2-2-|-0---0---0-0-0---|-----------------|-----------------| 
D|-----------------|-----------------|-0-0-0---0---0-0-|-5---5---5-5-5---| 

G|-----------------|-----------------| 
D|-----------------|-----------------| 
A|-----------------|-----------------| 
D|-0-----0-----0---|---0-----0-------| 

Pre-Chorus I 
G|-----------------|-----------------|-----------------|------------------| 
D|-----------------|-----------------|-----------------|------------------| 
A|-----------------|-----------------|-----------------|------------------| 
D|-5-5-5---5-5-5---|---5-5---5-5-5---|-7-7-7---7-7-7---|----7-7---7-7-7---| 

G|-----------------|-----------------| 
D|-----------------|-----------------| 
A|-----------------|-----------------| 
D|-0-0-0---0-0-0---|---0-0---0-0-0---| 

G|-----------------|-----------------|-----------------|------------------| 
D|-----------------|-----------------|-----------------|------------------| 
A|---------4-------|---------4h5p4---|---------4-------|------------------| 
D|-0---0-----------|-0---0-----------|-0---0-----------|-0---0---12\------| 

Chorus I 
G|-----------------|-----------------|-----------------|-----------------| 
D|-----------------|-----------------|-----------------|-----------------| 
A|-2-2-2-2-2-2-0-0-|-0-0-0-0-0-0-0-0-|-----------------|-----------------| 
D|-----------------|-----------------|-0-0-0-0-0-0-5-5-|-5-5-5-5-5-5-5-5-| 

G|-----------------|-----------------|-----------------|-----------------| 
D|-----------------|-----------------|-----------------|-----------------| 
A|-2-2-2-2-2-2-0-0-|-0-0-0-0-0-0-0-0-|-----------------|-----------------| 
D|-----------------|-----------------|-0-0-0-0-0-0-0-0-|-4-4-4-4-4-4-4-4-| 

G|-----------------|-----------------|-----------------|-----------------| 
D|-----------------|-----------------|-----------------|-----------------| 
A|-2-2-2-2-2-2-0-0-|-0-0-0-0-0-0-0-0-|-----------------|-----------------| 
D|-----------------|-----------------|-0-0-0-0-0-0-5-5-|-5-5-5-5-5-5-5-5-| 

G|-----------------|-----------------|-----------------|-----------------| 
D|-----------------|-----------------|-----------------|-----------------| 
A|-2-2-2-2-2-2-0-0-|-0-0-0-0-0-0-0-0-|-----------------|-----------------| 
D|-----------------|-----------------|-0-0-0-0-0-0-0-0-|-4-4-4-4-4-4-4-4-| 

Verse II 
G|-----------------|-----------------|-----------------|-----------------| 
D|-----------------|-----------------|-----------------|-----------------| 
A|-2-2-2---2---2-2-|-0---0---0-0-0---|-----------------|-----------------| 
D|-----------------|-----------------|-0-0-0---0---0-0-|-5---5---5-5-5---| 

G|-----------------|-----------------|-----------------|-----------------| 
D|-----------------|-----------------|-----------------|-----------------| 
A|-2-2-2---2---2-2-|-0---0---0-0-0---|-----------------|-----------------| 
D|-----------------|-----------------|-0-0-0---0---0-0-|-5---5---5-5-5---| 

G|-----------------|-----------------|-----------------|-----------------| 
D|-----------------|-----------------|-----------------|-----------------| 
A|-2-2-2---2---2-2-|-0---0---0-0-0---|-----------------|-----------------| 
D|-----------------|-----------------|-0-0-0---0---0-0-|-5---5---5-5-5---| 

G|-----------------|-----------------|-----------------|-----------------| 
D|-----------------|-----------------|-----------------|-----------------| 
A|-2-2-2---2---2-2-|-0---0---0-0-0---|-----------------|-----------------| 
D|-----------------|-----------------|-0-0-0---0---0-0-|-5---5---5-5-5---| 

G|-----------------|-----------------| 
D|-----------------|-----------------| 
A|-----------------|-----------------| 
D|-0-----0-----0---|---0-----0-------| 

Chorus II 
G|-----------------|-----------------|-----------------|-----------------| 
D|-----------------|-----------------|-----------------|-----------------| 
A|-2-2-2-2-2-2-0-0-|-0-0-0-0-0-0-0-0-|-----------------|-----------------| 
D|-----------------|-----------------|-0-0-0-0-0-0-5-5-|-5-5-5-5-5-5-5-5-| 

G|-----------------|-----------------|-----------------|-----------------| 
D|-----------------|-----------------|-----------------|-----------------| 
A|-2-2-2-2-2-2-0-0-|-0-0-0-0-0-0-0-0-|-----------------|-----------------| 
D|-----------------|-----------------|-0-0-0-0-0-0-0-0-|-4-4-4-4-4-4-4-4-| 

G|-----------------|-----------------|-----------------|-----------------| 
D|-----------------|-----------------|-----------------|-----------------| 
A|-2-2-2-2-2-2-0-0-|-0-0-0-0-0-0-0-0-|-----------------|-----------------| 
D|-----------------|-----------------|-0-0-0-0-0-0-5-5-|-5-5-5-5-5-5-5-5-| 

G|-----------------|-----------------|-----------------|-----------------| 
D|-----------------|-----------------|-----------------|-----------------| 
A|-2-2-2-2-2-2-0-0-|-0-0-0-0-0-0-0-0-|-----------------|-----------------| 
D|-----------------|-----------------|-0-0-0-0-0-0-0-0-|-4-4-4-4-4-4-4-4-| 

Bridge 
G|-----------------|-----------------|-----------------|-----------------| 
D|-----------------|-----------------|-----------------|-----------------| 
A|-----------------|-----------------|-----------------|-----------------| 
D|-5-5-5-5-5-5-5-5-|-5-5-5-5-5-5-5-5-|-7-7-7-7-7-7-7-7-|-7-7-7-7-7-7-7-7-| 

G|-----------------|-----------------|-----------------|-----------------| 
D|-----------------|-----------------|-----------------|-----------------| 
A|-----------------|-----------------|-2-2-2-2-2-2-2-2-|-0-0-0-0-0-0-0-0-| 
D|-4-4-4-4-4-4-4-4-|-4-4-4-4-4-4-4-4-|-----------------|-----------------| 

G|-----------------|-----------------|-----------------|-----------------| 
D|-----------------|-----------------|-----------------|-----------------| 
A|-2~----------0~--|-----------------|-----------------|-----------------| 
D|-----------------|-----------------|-0-----------5~--|-----------------| 


G|-----------------|-----------------|-----------------|-----------------| 
D|-----------------|-----------------|-----------------|-----------------| 
A|-2~----------0~--|-----------------|-----------------|-----------------| 
D|-----------------|-----------------|-0-----------5~--|-----------------| 

Chorus III 
G|-----------------|-----------------|-----------------|-----------------| 
D|-----------------|-----------------|-----------------|-----------------| 
A|-2-2-2-2-2-2-0-0-|-0-0-0-0-0-0-0-0-|-----------------|-----------------| 
D|-----------------|-----------------|-0-0-0-0-0-0-5-5-|-5-5-5-5-5-5-5-5-| 

G|-----------------|-----------------|-----------------|-----------------| 
D|-----------------|-----------------|-----------------|-----------------| 
A|-2-2-2-2-2-2-0-0-|-0-0-0-0-0-0-0-0-|-----------------|-----------------| 
D|-----------------|-----------------|-0-0-0-0-0-0-0-0-|-4-4-4-4-4-4-4-4-| 

G|-----------------|-----------------|-----------------|-----------------| 
D|-----------------|-----------------|-----------------|-----------------| 
A|-2-2-2-2-2-2-0-0-|-0-0-0-0-0-0-0-0-|-----------------|-----------------| 
D|-----------------|-----------------|-0-0-0-0-0-0-5-5-|-5-5-5-5-5-5-5-5-| 

G|-----------------|-----------------|-----------------|-----------------| 
D|-----------------|-----------------|-----------------|-----------------| 
A|-2-2-2-2-2-2-0-0-|-0-0-0-0-0-0-0-0-|-----------------|-----------------| 
D|-----------------|-----------------|-0-0-0-0-0-0-0-0-|-4-4-4-4-4-4-4-4-| 

Outro 
G|-----------------|-----------------|-----------------|------------------| 
D|-----------------|-----------------|-----------------|------------------| 
A|---------4-------|---------4h5p4---|---------4-------|---------4h5p4----| 
D|-0---0-----------|-0---0-----------|-0---0-----------|-0---0------------| 

G|-----------------|-----------------|-----------------|------------------| 
D|-----------------|-----------------|-----------------|------------------| 
A|-----------------|-4---------------|-----4-----------|-4----------------| 
D|-0-------0-------|---------0---0---|---------0---0---|-----0-0-0-0-0----| 

Happy playing! 

************************************ 
| (n) Ghost note 
| h   Hammer-on 
| p   Pull-off 
| \   Slide down 
| ~   Vibrato 
************************************ 
		  

See also:

bass Goo Goo Dolls - Slide bass Ramones - Beat On The Brat bass New Found Glory - All Downhill From Here bass B-52 - Love Shack bass Blink 182 - Adam's Song bass Blink 182 - Stay Together For the Kids
e-chords

Other versions:

bass Senses Fail - New Jersey Makes The World Takes
auto scroll beats size up size down change color hide chords drawings
tab show chords e-chords YouTube Clip e-chords hide all tabs e-chords go to top tab

share