Senses Fail

Gold Jacket Green Jacket

Senses Fail

bass

by  PAULLET3

save to print version add songbook text version e-mail correct tuner
chordsukulelecavacokeyboardtabbassdrumsharmonicaflute Guitar Pro
close

there isn't a video lesson for this song

chords

Gold Jacket Green Jacket

	  		
Intro (Drums and Guitar) 
F|-----------------|-----------------|-----------------|-----------------| 
C|-----------------|-----------------|-----------------|-----------------| 
G|-----------------|-----------------|-----------------|-----------------| 
C|-----------------|-----------------|-----------------|-----------------| 

F|-----------------|-----------------|-----------------|-----------------| 
C|-----------------|-----------------|-----------------|-----------------| 
G|-----------------|-----------------|-----------------|-----------------| 
C|-----------------|-----------------|-----------------|-----------------| 

Verse I 
F|-----------------|-----------------|-----------------|-----------------| 
C|-----------------|-----------------|-----------------|-----------------| 
G|-----------------|-----------------|-----------------|-----------------| 
C|-5-5-5-5-5x------|---------5-5-5-5-|-0-0-0-0-0x------|---------0-0-0-0-| 

F|-----------------|-----------------|-----------------|-----------------| 
C|-----------------|-----------------|-----------------|-----------------| 
G|-0-0-0-0-0x------|---------0-0-0-0-|-3-3-3-3-3x------|-----------------| 
C|-----------------|-----------------|-----------------|-4-4-4-4-4-4-4-4-| 

F|-----------------|-----------------|-----------------|-----------------| 
C|-----------------|-----------------|-----------------|-----------------| 
G|-----------------|-----------------|-----------------|-----------------| 
C|-5-5-5-5-5x------|---------5-5-5-5-|-0-0-0-0-0x------|---------0-0-0-0-| 

F|-----------------|-----------------|-----------------|-----------------| 
C|-----------------|-----------------|-----------------|-----------------| 
G|-0-0-0-0-0x------|---------0-0-0-0-|-3-3-3-3-3x------|-----------------| 
C|-----------------|-----------------|-----------------|-4-4-4-4-4-4-4-4-| 

F|-----------------| 
C|-----------------| 
G|-----------------| 
C|-----------------| 

Chorus 
F|-----------------|-----------------|-----------------|-----------------| 
C|-----------------|-----------------|-----------------|-----------------| 
G|-----------------|-----------------|-3-3-3-3-3-3-3-3-|-3-3-3-3-3-3-3-3-| 
C|-5-5-5-5-5-5-5-5-|-5-5-5-5-5-5-5-5-|-----------------|-----------------| 

F|-----------------|-----------------|-----------------|-----------------| 
C|-----------------|-----------------|-----------------|-----------------| 
G|-----------------|-----------------|-5-5-5-5-5-5-5-5-|-5-5-5-5-5-5-5-5-| 
C|-7-7-7-7-7-7-7-7-|-7-7-7-7-7-7-7-7-|-----------------|-----------------| 

F|-----------------|-----------------|-----------------|-----------------| 
C|-----------------|-----------------|-----------------|-----------------| 
G|-----------------|-----------------|-3-3-3-3-3-3-3-3-|-3-3-3-3-3-3-3-3-| 
C|-5-5-5-5-5-5-5-5-|-5-5-5-5-5-5-5-5-|-----------------|-----------------| 

F|-----------------|-----------------|-----------------|-----------------| 
C|-----------------|-----------------|-----------------|-----------------| 
G|-----------------|-----------------|-5-5-5-5-5-5-5-5-|-5-5-5-5-5-5-5-5-| 
C|-7-7-7-7-7-7-7-7-|-7-7-7-7-7-7-7-7-|-----------------|-----------------| 

F|-----------------|-----------------|-----------------| 
C|-----------------|-----------------|-----------------| 
G|-3-3-3-3-3-3-3-3-|-3---------------|-----------------| 
C|-----------------|---5-5-5-5-5-5-5-|-----------------| 

Interlude 
F|-----------------|-----------------|-----------------|-----------------| 
C|-----------------|-----------------|-----------------|-----------------| 
G|-----------------|-----------------|-----------------|-----------------| 
C|-----------------|-----------------|-----------------|-----------------| 

Verse II 
F|-----------------|-----------------|-----------------|-----------------| 
C|-----------------|-----------------|-----------------|-----------------| 
G|-----------------|-----------------|-----------------|-----------------| 
C|-5-5-5-5-5x------|---------5-5-5-5-|-0-0-0-0-0x------|---------0-0-0-0-| 

F|-----------------|-----------------|-----------------|-----------------| 
C|-----------------|-----------------|-----------------|-----------------| 
G|-0-0-0-0-0x------|---------0-0-0-0-|-3-3-3-3-3x------|-----------------| 
C|-----------------|-----------------|-----------------|-4-4-4-4-4-4-4-4-| 

F|-----------------|-----------------|-----------------|-----------------| 
C|-----------------|-----------------|-----------------|-----------------| 
G|-----------------|-----------------|-----------------|-----------------| 
C|-5-5-5-5-5x------|---------5-5-5-5-|-0-0-0-0-0x------|---------0-0-0-0-| 

F|-----------------|-----------------|-----------------|-----------------| 
C|-----------------|-----------------|-----------------|-----------------| 
G|-0-0-0-0-0x------|---------0-0-0-0-|-3-3-3-3-3x------|-----------------| 
C|-----------------|-----------------|-----------------|-4-4-4-4-4-4-4-4-| 

F|-----------------| 
C|-----------------| 
G|-----------------| 
C|-17~\------------| 

Chorus II 
F|-----------------|-----------------|-----------------|-----------------| 
C|-----------------|-----------------|-----------------|-----------------| 
G|-----------------|-----------------|-3-3-3-3-3-3-3-3-|-3-3-3-3-3-3-3-3-| 
C|-5-5-5-5-5-5-5-5-|-5-5-5-5-5-5-5-5-|-----------------|-----------------| 

F|-----------------|-----------------|-----------------|-----------------| 
C|-----------------|-----------------|-----------------|-----------------| 
G|-----------------|-----------------|-5-5-5-5-5-5-5-5-|-5-5-5-5-5-5-5-5-| 
C|-7-7-7-7-7-7-7-7-|-7-7-7-7-7-7-7-7-|-----------------|-----------------| 

F|-----------------|-----------------|-----------------|-----------------| 
C|-----------------|-----------------|-----------------|-----------------| 
G|-----------------|-----------------|-3-3-3-3-3-3-3-3-|-3-3-3-3-3-3-3-3-| 
C|-5-5-5-5-5-5-5-5-|-5-5-5-5-5-5-5-5-|-----------------|-----------------| 

F|-----------------|-----------------|-----------------|-----------------| 
C|-----------------|-----------------|-----------------|-----------------| 
G|-----------------|-----------------|-5-5-5-5-5-5-5-5-|-5-5-5-5-5-5-5-5-| 
C|-7-7-7-7-7-7-7-7-|-7-7-7-7-7-7-7-7-|-----------------|-----------------| 

Guitar Solo 
F|-----------------|-----------------|-----------------|-----------------| 
C|-----------------|-----------------|-----------------|-----------------| 
G|-3-3-3-3-3-3-3-3-|-----------------|-----------------|-------------2-2-| 
C|-----------------|-5-5-5-5-5-5-5-5-|-0-0-0-0-0-0-0-0-|-2-2-2-0-0-0-----| 

F|-----------------|-----------------|-----------------|-----------------| 
C|-----------------|-----------------|-----------------|-----------------| 
G|-3-3-3-3-3-3-3-3-|-----------------|-----------------|-------------2-2-| 
C|-----------------|-5-5-5-5-5-5-5-5-|-0-0-0-0-0-0-0-0-|-2-2-2-0-0-0-----| 

F|-----------------|-----------------|-----------------|-----------------| 
C|-----------------|-----------------|-----------------|-----------------| 
G|-3-3-3-3-3-3-3-3-|-----------------|-----------------|-----------------| 
C|-----------------|-5-5-5-5-5-5-5-5-|-0-0-0-0-0-0-0-0-|-0-0-0-0-0-0-0-0-| 

Bridge (played softly) 
F|-----------------|-----------------|-----------------|-----------------| 
C|-----------------|-----------------|-----------------|-----------------| 
G|-----------------|-----------------|-----------------|-----------------| 
C|-5-5-5-5-5-5-5-5-|-5-5-5-5-5-5-5-5-|-0-0-0-0-0-0-0-0-|-0-0-0-0-0-0-0-0-| 

F|-----------------|-----------------|-----------------|-----------------| 
C|-----------------|-----------------|-----------------|-----------------| 
G|-0-0-0-0-0-0-0-0-|-0-0-0-0-0-0-0-0-|-3-3-3-3-3-3-3-3-|-3-3-3-3-3-3-3-3-| 
C|-----------------|-----------------|-----------------|-----------------| 

F|-----------------|-----------------|-----------------|-----------------| 
C|-----------------|-----------------|-----------------|-----------------| 
G|-----------------|-----------------|-----------------|-----------------| 
C|-5-5-5-5-5-5-5-5-|-5-5-5-5-5-5-5-5-|-0-0-0-0-0-0-0-0-|-0-0-0-0-0-0-0-0-| 

F|-----------------|-----------------|-----------------|-----------------| 
C|-----------------|-----------------|-----------------|-----------------| 
G|-0-0-0-0-0-0-0-0-|-0-0-0-0-0-0-0-0-|-3-3-3-3-3-3-3-3-|-3-3-3-3-3-3-3-3-| 
C|-----------------|-----------------|-----------------|-----------------| 

F|-----------------|-----------------|-----------------|-----------------| 
C|-----------------|-----------------|-----------------|-----------------| 
G|-----------------|-----------------|-----------------|-----------------| 
C|-5-5-5-5-5-5-5-5-|-5-5-5-5-5-5-5-5-|-0-0-0-0-0-0-0-0-|-0-0-0-0-0-0-0-0-| 

F|-----------------|-----------------|-----------------|-----------------| 
C|-----------------|-----------------|-----------------|-----------------| 
G|-0-0-0-0-0-0-0-0-|-0-0-0-0-0-0-0-0-|-3-3-3-3-3-3-3-3-|-3-3-3-3-3-3-3-3-| 
C|-----------------|-----------------|-----------------|-----------------| 

F|-----------------|-----------------|-----------------|-----------------| 
C|-----------------|-----------------|-----------------|-----------------| 
G|-----------------|-----------------|-----------------|-----------------| 
C|-5-5-5-5x--------|---------5-5-5-5-|-0-0-0-0x--------|---------0-0-0-0-| 

F|-----------------|-----------------|-----------------|-----------------| 
C|-----------------|-----------------|-----------------|-----------------| 
G|-0-0-0-0x--------|---------0-0-0-0-|-3~--------------|-----------------| 
C|-----------------|-----------------|-----------------|-----------------| 

Chorus III 
F|-----------------|-----------------|-----------------|-----------------| 
C|-----------------|-----------------|-----------------|-----------------| 
G|-----------------|-----------------|-3-3-3-3-3-3-3-3-|-3-3-3-3-3-3-3-3-| 
C|-5-5-5-5-5-5-5-5-|-5-5-5-5-5-5-5-5-|-----------------|-----------------| 

F|-----------------|-----------------|-----------------|-----------------| 
C|-----------------|-----------------|-----------------|-----------------| 
G|-----------------|-----------------|-5-5-5-5-5-5-5-5-|-5-5-5-5-5-5-5-5-| 
C|-7-7-7-7-7-7-7-7-|-7-7-7-7-7-7-7-7-|-----------------|-----------------| 

F|-----------------|-----------------|-----------------|-----------------| 
C|-----------------|-----------------|-----------------|-----------------| 
G|-----------------|-----------------|-3-3-3-3-3-3-3-3-|-3-3-3-3-3-3-3-3-| 
C|-5-5-5-5-5-5-5-5-|-5-5-5-5-5-5-5-5-|-----------------|-----------------| 

F|-----------------|-----------------|-----------------|-----------------| 
C|-----------------|-----------------|-----------------|-----------------| 
G|-----------------|-----------------|-5-5-5-5-5-5-5-5-|-5-5-5-5-5-5-5-5-| 
C|-7-7-7-7-7-7-7-7-|-7-7-7-7-7-7-7-7-|-----------------|-----------------| 

F|-----------------|-----------------|-----------------| 
C|-----------------|-----------------|-----------------| 
G|-3-3-3-3-3-3-3-3-|-3---------------|-----------------| 
C|-----------------|---5-5-5-5-5-5-5-|-5\--------------| 

Happy playing! 

************************************ 
| x   Dead note 
| \   Slide down 
| ~   Vibrato 
************************************ 
		  

See also:

bass New Found Glory - All Downhill From Here bass Blink 182 - Stay Together For the Kids bass Fall Out Boy - A little less sixteen candles a little more touch me bass Blink 182 - Aliens Exist bass B-52 - Love Shack (ver. 2) bass Goo Goo Dolls - Iris (ver. 2)
e-chords

Other versions:

bass Senses Fail - Gold Jacket Green Jacket
auto scroll beats size up size down change color hide chords drawings
tab show chords e-chords YouTube Clip e-chords hide all tabs e-chords go to top tab

share