Sebadoh

home > Sebadoh

Licence To Confuse Bass Tab

Sebadoh

Difficulty: nolevelnolevel

by hugo%5Frodrigues

tuner correct add songbook print version text version save to e-mail
chordsukulelecavacokeyboardtabbassdrumsharmonicsflute Guitar Pro
chords

Licence To Confuse

  		The hardest parts of this song are the transitions between Verse/Chorus/Bridge. These changes 
doesn't follows the guitar and can be really messy. 

Intro 

Guitar alone, no bass 

verse 1 Start at 4 second, the bass follows perfectly the guitar 

Gb|4-2-0----------| 
Db|----------0-2--| 
Ab|--------2------|   X12 
Eb|------3--------| 

The last one stop halfway, then you go directly to the Chorus  

Gb|4-2-0----------| 
Db|---------------| 
Ab|---------------|   X1 
Eb|---------------| 

Chorus 1 Start at 26 seconds 

Gb|--------------------------------| 
Db|--------------------------------| 
Ab|--------------------------------| X 1 
Eb|3-3-3-3-0-0-5-0-3-3-3-3-0-0-0-0-| 


Gb|--------------------------| 
Db|--------------------------| 
Ab|--------------------------| X 1 
Eb|3-3-3-3-0-0-5-0-3-3-3-3-0-| 

Be careful the switch to the second verse can be tricky 

verse 2 Same as first one ,start at 32 seconcds 

Gb|4-2-0----------| 
Db|----------0-2--| 
Ab|--------2------|   X10 
Eb|------3--------| 

Gb|4-2-0----------| 
Db|---------------| 
Ab|---------------|   X1 
Eb|---------------| 

Chorus 2  Start at 51 seconds 

Gb|-----------------| 
Db|-----------------| 
Ab|-----------------| X 4 
Eb|3-3-3-3-0-0-5-0--| 

Care the transition to the bridge is tricky 

Bridge Start at 58 seconds. 

Gb|---------------| 
Db|---------------| X3  
Ab|---------------| 
Eb|3-3-3-0--0-0---| 

Gb|---------------| 
Db|---------------| X1  
Ab|---------------| 
Eb|3-3-3-0--------| 

verse 3 Start at 1.04 

Gb|4-2-0----------| 
Db|----------0-2--| 
Ab|--------2------|   X2 
Eb|------3--------| 


Gb|4-2-0----------| 
Db|---------------| 
Ab|---------------|   X1 
Eb|---------------| 

Chorus 4 Start at 1.08 
I am not super sure (the mix is so messy) do not hesitate to correct! 

Gb|----------------| 
Db|----------------| 
Ab|----------------| X 4 
Eb|3-3-3-3-0-0-0-0-| 


Outro Start at 1.19 

Gb|------------------------| 
Db|------------------------| 
Ab|------------------------|  X2 
Eb|-7--7--7-7-7-7-7--7--7--| 

Gb|----------------------------------------------------------------------------------| 
Db|----------------------------------------------------------------------------------| 
Ab|----------------------------------------------------------------------------------|  X1 
Eb|-9--9--9-9-9-9-9--9--9---7--7--7-7-7-7-7--7--7--9--9-9-9-9-9--9--9---3---3---3---3| 

Gb|-------------------------------------------------------------------| 
Db|-------------------------------------------------------------------| 
Ab|-------------------------------------------------------------------|  X1 
Eb|-9--9--9-9-9-9-9--9--9---7--7--7-7-7-7-7--7--7--9--9-9-9-9-9--9--9-| 

Gb|------------------------------------------------| 
Db|------------------------------------------------| 
Ab|------------------------------------------------|  X1 
Eb|-3--3--3-3-3-3--3--3--3-3-3-3--3--3--3-3-3-3--3-| 
	  

Search Paypal
auto scroll beats size up size down change color hide chords drawings
tab show chords e-chords YouTube Clip e-chords hide all tabs e-chords go to top tab