Santana

home > Santana

Hope You're Feeling Better Bass Tab

Santana

Difficulty: EasyEasy

by eduardo%5Flyvio

tuner correct add songbook print version text version save to e-mail
chordsukulelecavacokeyboardtabbassdrummharmonicsflute Guitar Pro
chords

Hope You're Feeling Better

Year: 1990 - Album: Abraxas

  		intro (x4)         verse (x3)           verse outro         and Chorus 
G|-----------------|---9----9----9-------|---9----9----9------------------------------------ 
D|---5--7---5-55---|------------------57-|------------------557--5---------7--5---------7--5 
A|5-7--7--57-7--7--|7-7--7-7--7-7--7-7---|7-7--7-7--7-7--7-7-------77777777-----77777777---- 
E|-----------------|---------------------|-------------------------------------------------- 
 
            solo 
----------|9--7--------9119--------------------------------------------------------------------- 
----------|------7--5------9119----------------------------------------------------------------- 
--77777777|----------7---------9119-77-77-7775-55-55-5550-00-00-0057-77-77-7777-77-77-7775-55-55 
----------|------------------------------------------------------------------------------------- 
 
------------------------------------------------------------------------------------------------- 
---------------------------------------------------------------5553------------------------------ 
5550-00-00-0057-77-77-7777-77-77-7775-55-55-5550-00-00-003----3----53----3-5-7--57------3-5-7p5h7 
----------------------------------------------------------3-5--------3-5------------3-5---------- 
 
---------------------| 
---------------------| 
-57--7p5h7--7p5h7--\-| 
---------------------| 
 
   played after last Chorus 
G|--------9----------9----------------------9-| 
D|9-7575-9---9-7575-9---9-775759-75759-75759--|the outro is the same as the intro with the last  
A|------7----------7--------------------------|  part of the solo added on. 
E|--------------------------------------------| 
 
p=pull off 
h=hammer on 
\=slide down 
 
 
 

	  

Search Paypal
auto scroll beats size up size down change color hide chords drawings
tab show chords e-chords YouTube Clip e-chords hide all tabs e-chords go to top tab